Oops, an error
Loading. Please wait.

Qué Va A Ser De Mí tab

version 1
version 1

Whole song

49 views 1 this week
no commentswrite comment
1 2 3 4 5
3 more votes to show rating
add to favorites
×
Save as Personal and add changes to this tab that will be seen only by you. Learn more ›
×
You can save this tab as Personal to edit and correct it or add notes. All changes will be seen only by you. Learn more »
launch autoscroll
font size
0
reset
how to read this tab
guitar tuner
edit
Autoscroll
slow
fast
+/-
esc
set tempo
stop
Tabulado enviado por:  Pablo Herrero Poza 
no dudeis en mandar vuestros mensajes a pahepoz@ 

INTRO:
E|-----------0--2--3--5-----5--3-----0-----2-3-2---------------------0-------------|
B|--------3--------------5--------3-----3-------------------------3-----3-----3----|
G|-----2-------------------------------------------------------2-----------2-------|
D|--0--------------------------------------0-------0--------0----------------------|
A|--------------------4--------2----------------------4--2--------------0----------|
E|---------------------------------------------------------------------------------|


E|--------------0-------|-----------3-----5-----5-----2-----0-----------------------|
B|-----------3-----3--2-|-------3-----3-----5-----5------2-----3-----3--------------|
G|--------0-------------|----0------------------------------------2-----------------|
D|-----0----------------|-----------------------------------------------------------|
A|-----------------0----|-----------------4-----------1--------2--------------------|
E|--3-------------------|-3---------------------------------------------------------|


E|--------------------0-----------------------0-----0-------------0----|------------|
B|-----------------3-----3-----3-----------3-----3-------------3-----2-|2-3-5-3-2-*-|
G|--------------0-----------2-----------0-------------------0----------|------------|
D|-----------0-----------------------2-------------------2-------------|------------|
A|-----------------------0----------------------------0--------------0-|----------*-|
E|--0--2--3-----------------------0------------------------------------|------------|

Qué va a ser de mí, volveré a mentir de nuevo,
llenaré mi cama de fantasmas de muertos.
Contaré los días las calles que nos separan,
las tardes de domingo esperaré tu llamada.

Maldeciré a las parejas que abrazadas,
sueñan con habitaciones de hotel desocupadas,
y odiaré con clama tu risa,
todas mis palabras, nuestra despedida.

Qué va a ser de mí, les diré barbaridades
a las mujeres hermosas que pasen por mi calle,
sin que me invites me colaré en tus fiestas,
cuando venga tu recuerdo reiré con violencia.

Iré a buscarte a los sitios acordados,
aunque tú no vengas, aunque me hayas olvidado.
Te escribiré los versos que nunca te hice,
seré puntual como siempre quisiste.

Qué va a ser de mí, emprenderé un largo viaje,
para que el eco de tus noches nunca me alcance.
Qué va a ser de mí, dudo que en ningún bar
me puedan servir todo el alcohol que necesito para olvidar.

Iré a buscarte a los sitios acordados,
aunque tú no vengas, aunque me hayas olvidado.
Te escribiré las cartas que nunca te hice,
seré puntual como siempre quisiste.

            
            
Suggest correction
Creating personal tab
Creating personal tab
You can edit any tab online and save it as your Personal.

You can edit, replace or remove any tab part or add personal notes – all changes will be seen only by you.

Personal tabs can be accessed anytime from any device, even offline.
Learn more »
Give kudos to tab author, rate the tab!
1 2 3 4 5
comments
print report bad tab
guest
Wanna post a correction for this tab? Suggest correction