Oops, an error
Loading. Please wait.

El Dormilón chords

version 2
version 2

Whole song

98 views 1 this week
no commentswrite comment
1 2 3 4 5
3 more votes to show rating
add to favorites
×
Save as Personal and add changes to this tab that will be seen only by you. Learn more ›
×
You can save this tab as Personal to edit and correct it or add notes. All changes will be seen only by you. Learn more »
launch autoscroll
font size
0
reset
transpose
0
reset
display chords
guitar tuner
edit
Autoscroll
slow
fast
+/-
esc
set tempo
stop
Strumming
There is no strumming pattern for this song yet. and get +5 IQ

D
Ella quiere salvar el planeta
A
y él quiere que el mundo se gobierne solo
Bm                        F#                  G
ella vuela en bicicleta y el la llama desde un taxi

Ella vive en todo el mundo
y él ve el mundo por la tele,
ella es una diosa y el es un cometa

D
Ella duerme por las noches
A
no recuerda lo que sueña,
Bm
él sueña con dormir cuando ella duerme
F#            G                       A    G    A
y sueña con soñar lo que ella sueña.....


e----------------------------------------------------
B-----------------5--7--8----------------------------
G--------4--6--7-------------6-----------------------
D----------------------------------------------------
A----------------------------------------------------
E----------------------------------------------------


A             G             A              G         LA
...y sueña con soñar lo que ella sueña.....


e-----------------------------------------------------
B-----------------5--7--8------------5-----5-----5----
G--------4--6--7-------------6--------6-----6-----6---
D-----------------------------------7-----7-----7-----
A-----------------------------------------------------
E-----------------------------------------------------


A


D
Ella es la esperanza de la humanidad,
A                                  Bm
y él escribe mientras ella duerme, él fuma y obedece,
F#                   G
ella habla y resplandece


Ella cantará desnuda una canción
y él mira y se relame,
él se pierde entre su pelo
y ella se abraza fuerte y dice...


D             A              Bm                G
Que las noches con sus lunas y las lunas con sus huesos
D          A        Bm      G
nos secuestran a los dos...
D             A              Bm                G
Que las lluvias y los soles y las hojas en el suelo
D          A       Bm      G
nos encuentren a los dos.....
D             A              Bm                G
Que los años y el presente nos sorprendan a los dos.....


Ella siempre mira hacia adelante
y el jamas mira hacia atrás,
ella duerme y sueña aunque no se acuerde
el escribe mientras ella duerme


Ella es la esperanza de la humanidad,
y él escribe mientras ella duerme, él fuma y obedece,
ella habla y resplandece


Ella sonrie y devora la vida,
el devora la vida y sonrie
él sueña con dormir cuando ella duerme
y sueña con soñar lo que ella sueña.....


e----------------------------------------------------
B-----------------5--7--8----------------------------
G--------4--6--7-------------6-----------------------
D----------------------------------------------------
A----------------------------------------------------
E----------------------------------------------------


...y sueña con soñar lo que ella sueña.....


e----------------------------------------------------
B-----------------5--7--8------------6----6----6-----
G--------4--6--7-------------6--------7----7----7----
D--------------------------------------7----7----7---
A----------------------------------------------------
E----------------------------------------------------
x3


D             A              Bm                G
Que las noches con sus lunas y las lunas con sus huesos
D          A        Bm      G
nos secuestran a los dos...
D             A              Bm                G
Que las lluvias y los soles y las hojas en el suelo
D          A       Bm      G
nos encuentren a los dos.....
D             A              Bm                G
Que los años y el presente nos sorprendan a los dos.....


e-----12----10-------12----10--------12---------------
B--12-----------12--------------12--------------------

x4
Suggest correction
Creating personal tab
Creating personal tab
You can edit any tab online and save it as your Personal.

You can edit, replace or remove any tab part or add personal notes – all changes will be seen only by you.

Personal tabs can be accessed anytime from any device, even offline.
Learn more »
Give kudos to tab author, rate the tab!
1 2 3 4 5
comments
print report bad tab
guest
Wanna post a correction for this tab? Suggest correction