Oops, an error
Loading. Please wait.

El León bass

version 1
version 1

Whole song

458 views 3 this week
no commentswrite comment
1 2 3 4 5
3 more votes to show rating
add to favorites
×
Save as Personal and add changes to this tab that will be seen only by you. Learn more ›
×
You can save this tab as Personal to edit and correct it or add notes. All changes will be seen only by you. Learn more »
launch autoscroll
font size
0
reset
guitar tuner
edit
Autoscroll
slow
fast
+/-
esc
set tempo
stop
HOLA Q TAL GENTE ESTA ES LA VERSIÓN PARA BAJO ELECTRICO
DE EL LEÓN SANTILLAN ESPERO LA ENTIENDAN
GRACIAS GENTE SALUDOS DESDE PASTO COLOMBIA

INTRODUCCIÓN:
1:-----------------------
2:-----------------------
3:-------------3-3-3--6--
4:-3-3-3---6-6-6---------

ESTROFAS Y COROS:

1:--------------------7-------------------
2:----------------------7--7--5-3-3-4-5---
3:-----------1-3--1-3-----5----5--------5-
4:--1-3--1-3------------------------------

PRECOROS BIS (4 VECES) (LO DIJO EL LEON....):

1:---------------------------------
2:-3-3-3-3-------------------------
3:-----------------1-0-------1-0---
4:--------1-1-1-1-3---3-0-1-3---3-1

LUEGO REPITEN LA INTRODUCION LAS ESTROFA Y
LOS COROS LUEGO EL ARRGELO DEL BASS

1:---------------------------------
2:-3-3-3-3-------------------------
3:-----------------1-0-------1-0---
4:--------1-1-1-1-3---3-0-1-3---3-1

LO ANTERIOR DOS VECES Y A LA TERCERA:
1:-----------------------------
2:-3-3-3-3--------5-3-3-5-5-3-5
3:-------------------5-----5---
4:--------1-1-1-1--------------

LUEGO LA INTRODUCCION DE NUEVO,
EN EL SOLO DE TROMBON SON LAS MISMAS NOTAS
DE LAS ESTROFAS HASTA EL FINAL DE LA CANCION
 Y CONCLUYE CON LAS NOTAS DE LA INTRODUCCION

ES UN TEMA DEMASIADO FACIL PERO DE MUCHA DEDICACION
TODO DEPENDE DEL FILIM QUE SE LE PONGA
UN SALUDO MUY ESPECIAL DESDE PASTO
PARA TODOS LOS BAJISTAS DE ESTA WEB SALUDOS COLEGAS

            
            
Suggest correction
Creating personal tab
Creating personal tab
You can edit any tab online and save it as your Personal.

You can edit, replace or remove any tab part or add personal notes – all changes will be seen only by you.

Personal tabs can be accessed anytime from any device, even offline.
Learn more »
Give kudos to tab author, rate the tab!
1 2 3 4 5
comments
print report bad tab
guest
Wanna post a correction for this tab? Suggest correction