Oops, an error
Loading. Please wait.

El Satánico Dr. Cadillac bass

version 2
version 2

Whole song

425 views 1 this week
no commentswrite comment
1 2 3 4 5
3 more votes to show rating
add to favorites
×
Save as Personal and add changes to this tab that will be seen only by you. Learn more ›
×
You can save this tab as Personal to edit and correct it or add notes. All changes will be seen only by you. Learn more »
launch autoscroll
font size
0
reset
guitar tuner
edit
Autoscroll
slow
fast
+/-
esc
set tempo
stop
EL SATANICO DR. CADILLAC POR MI RICHI!!!
pal gus que nada mas esta chingue y chinue,
si les late escribanme a mi mail, hellgate_777@

************************************************


intro

1-------------------------------------------------------------------------|
2-------------------------------------------------------------------------|
3-------------------------------------------------------------------------|
4--3-3-3-3-3-3-3-3-3-3-3-3-3-3-3-3-3-/15-15-15-15-14-14-14-13-13-13-12-12-|

1------------------------------------3--------------------------|
2---X-X----X-------3---X-X----5-----------X-5----5-------3------|
3------------3H5P3--------------3H5P3---------------3H5P3--3h5--|
4-3-----3-3----------3-3---3-3----------3X----3-3---------------|

1----------3h5-5-5------|
2----x-x------------3h5-|
3-------3h5-------------|
4-3-3-------------------|

1-----------------------------------------3h5-5-5-------------------------|
2---5-5---------5--------3--------x-5-------------3h5----x-x-------5------|
3---------3H5P3----1H3P1---3h5--------3h5--------------------3h5h3---1h3h1|
4-3-----3----------------------3x---------------------3-x-----------------|

1----------------------------|
2-3----------3h5-------------|
3----3h5----------3h5--------|
4--------3-x---------3-------|
verso Y TROMPETAS

  Cm                                       G
1-------------------|--------------------|--------------------------|
2-------------------|-----------------3--|-------5-------------5----|
3--33-3-55-5-66-6-55|--33-3-55-5-66-6---5|---3H5---5-3H5---3H5---3-5|
4-------------------|--------------------|-3-------------3----------|

  D
1--------------------------------|
2----4-7-----4-7-----4-7---------|
3-5-5----5-5-----5-5-----5-5-4-5-|
4--------------------------------|


  G
1-------------------------|
2-------5--------5---3---1|
3---3H5---5-3H5-----------|
4-3-------------3---------| SE REPITE TRES VECES

CORO

 D#       x3          A#
1-----------|-------|--------------------------------------------|
2-----5-8---|-------|--------------------------------------------|
3-6-6-------|6-6-6-5|----5-8--10-10-10-8-------5-8-10-10-10-8----|
4-----------|-------|-6-6----------------10-6-6---------------10-|

 C                                      D
1-----------------------------------|---------------------|
2-----------------------------------|---------------------|
3----6-10-----6-10-----6-10-----6-10|---5-5-5-----3H5P3H5-|  DOS VECES
4-8-8-----8-8------8-8------8-8-----|---------3H5---------|


PUENTE, VA IGUAL QUE EL INTRO
VERSO
CORO

INTRO DEL SOLO

1------------------2H3P2H3P2H3P2H3---------------------|
2-5---55---55---55-------------------5---55---55---55--|
3------------------------------------------------------|
4---3---------3------------------------3---------3-----|

YA EL SOLO BUENO CON PURO SLAP
ESCUCHEN BIEN EL RITMO VA!
1------------------------------------------------------------5--3H5-------|
2----3H5-----X-5---X-5-3H5---X-5----X---X---X-5--X-5-3H5-4H5---5---3H5----|
3-3H5---3H5------------------------------------------------------------3H5|
4-----------3----3---------3-----3-1-1-2-2-3---3--------------------------|

1----------5-5-5-5P3/1---------5-5-5-3H1---------3H5-3H5-----------|
2---X-5-------------------X-X---------------X-5----------3H5-------|
3------------------------------------------------------------3H5---|
4-3-----3--------------1-3---3-----------3-3----3----------------3-|

1-----------------------------------------|
2-X-5---X--X------------------------------|
3-----------------------------------------|
4----3-1-1--2-151515151515151514141413131-|

  Y LUEGO VA EL CORO Y TERMINA EN G

            
            
Suggest correction
Creating personal tab
Creating personal tab
You can edit any tab online and save it as your Personal.

You can edit, replace or remove any tab part or add personal notes – all changes will be seen only by you.

Personal tabs can be accessed anytime from any device, even offline.
Learn more »
Give kudos to tab author, rate the tab!
1 2 3 4 5
comments
print report bad tab
guest
Wanna post a correction for this tab? Suggest correction