Oops, an error
Loading. Please wait.

Vasos Vacíos bass

version 4
version 4

Whole song

Interactive

94 views 1 this week
no commentswrite comment
1 2 3 4 5
3 more votes to show rating
add to favorites
×
Save as Personal and add changes to this tab that will be seen only by you. Learn more ›
×
You can save this tab as Personal to edit and correct it or add notes. All changes will be seen only by you. Learn more »
launch autoscroll
font size
0
reset
guitar tuner
edit
Autoscroll
slow
fast
+/-
esc
set tempo
stop
Hola les envio esta transcripcion para bajo,
seguramente tiene algunos errores pero bueno,
espero que lo notifiquen para saberlo.
 No estoy muy seguro de como escribir el tiempo
con esa notacion pero escuchandola es facil de relacionar
Suerte!!!!

A) VERSOS desde la intro

G|-----------------------------------------------|
D|----------------5--------2-2-5-2---2-2-5-2--2--|
A|----------2-5---------7-5--------------------3-|
E|---3-3--3-----3--------------------------------|

G------------------------------------|
D---2--2------2--2-----4---4---4-----|
A-----3--3------3--3-----5---5--5----|
E---------------------------------5--|
se repite en todo el verso con
unas ligeras variaciones en
toda la cancion

B) CORO:

G|--------------------------------------|
D|----------------------------------0-2-|
A|---3----3-3---5-3-------5-5-7-2-------|
E|------3-----------5--3----------------|

G------------------------------------------|
D------------4-------4-5-------------5-----|
A-3-3-3---3-3--5-5-3---------3-5-------5-0-|
E-------3----------------------------------|


levanta los brazos mujer....
G|-----------------------------------------|
D|-----------------------------------------|
A|---33-3----333--5-3--------5-5-7-----5-7-|
E|----3----3----------5--3---------7-------|


G--------------------------------------------|
D--5---5---5----7---7-------5----------------|
A----7-------7----9-----9-7-------3-5--5-----|
E------------------------------------------3-|

de nuevo los versos y los coros con algunas variaciones
(Los anteriores son la base)
solo hay ke ponerle atencion y escuchar y se entiede

            
            
Suggest correction
Creating personal tab
Creating personal tab
You can edit any tab online and save it as your Personal.

You can edit, replace or remove any tab part or add personal notes – all changes will be seen only by you.

Personal tabs can be accessed anytime from any device, even offline.
Learn more »
Give kudos to tab author, rate the tab!
1 2 3 4 5
comments
print report bad tab
guest
Wanna post a correction for this tab? Suggest correction