Oops, an error
Loading. Please wait.

Avívame tab

version 2
version 2

Whole song

69 views 1 this week
no commentswrite comment
1 2 3 4 5
3 more votes to show rating
add to favorites
×
Save as Personal and add changes to this tab that will be seen only by you. Learn more ›
×
You can save this tab as Personal to edit and correct it or add notes. All changes will be seen only by you. Learn more »
launch autoscroll
font size
0
reset
how to read this tab
guitar tuner
edit
Autoscroll
slow
fast
+/-
esc
set tempo
stop
Este es el solo de guitarra de esta cancion
(espero que lo haya sacado bien y que les sirva)


Empieza con 7 notas en el minuto 3:04 de la cancion,
en la cuarta vez que dice ?clamaremos hasta ver tu gloria?
(donde la chica se extiende diciendo glooooooooria)

1ra parte
e|----------------|---------------------------|------------------------|
B|-----------9-10-|--9--9---9-7---12-10-9-7-7-|---------12-10----10-12-|
G|----9-9-11------|-------------9-------------|-10s11-9-------13-------|
D|9s12------------|---------------------------|------------------------|
A|----------------|---------------------------|------------------------|
E|----------------|---------------------------|------------------------|

2da parte(es en el tiempo 3:12 de la canción)
e|-----------------------------------|---------------------------------|
B|---9--9---9-7----10s12-14-12-------|-------------17-16---------------|
G|--------------9--------------13-11-|-------------------18-16---18----|
D|-----------------------------------|--15s16-18-----------------------|
A|-----------------------------------|---------------------------------|
E|-----------------------------------|---------------------------------|


Nota: esperen un tiempo, pues pronto me haré de un espacio en mi
      atareada agenda para sacar todo lo que hace el teclado en esta
      cancion (como el intro y demás); esto será para aquellos grupos
      de alabanza que carecen de un tecladista y cuentan, al menos, con
      una guitarra solista(como en mi caso)

Si desean platicar conmigo sobre musica, tablaturas y demas cosas
relacionadas con la guitarra agréguenme; mi correo es
saviour_king@

Hasta luego y DLB

            
            
Suggest correction
Creating personal tab
Creating personal tab
You can edit any tab online and save it as your Personal.

You can edit, replace or remove any tab part or add personal notes – all changes will be seen only by you.

Personal tabs can be accessed anytime from any device, even offline.
Learn more »
Give kudos to tab author, rate the tab!
1 2 3 4 5
comments
print report bad tab
guest
Wanna post a correction for this tab? Suggest correction