Oops, an error
Loading. Please wait.

Quizas No Podía Ver tab

version 1
version 1

Whole song

by Fakie
15 views 1 this week
no commentswrite comment
1 2 3 4 5
3 more votes to show rating
add to favorites
×
Save as Personal and add changes to this tab that will be seen only by you. Learn more ›
×
You can save this tab as Personal to edit and correct it or add notes. All changes will be seen only by you. Learn more »
launch autoscroll
font size
0
reset
how to read this tab
guitar tuner
edit
Autoscroll
slow
fast
+/-
esc
set tempo
stop
Intro:


Una Guitarra hace este punteo: ..

E|-------------------------------|------------------------|
B|--------------------9-10-9-----|------------------------|
G|--9-8-9--9-11-9-11----------9--|--9-8-9---9-11-9--8--9--|
D|-------------------------------|------------------------|
A|-------------------------------|------------------------|
E|-------------------------------|------------------------|

E|-------------------------------|------------------------------------|
B|--------------------9-10-9-----|-------------------------999p10h9---|
G|--9-8-9--9-11-9-11----------9--|--9-8-9---9-11-9--8--9-------------9|
D|-------------------------------|------------------------------------|
A|-------------------------------|------------------------------------|
E|-------------------------------|------------------------------------|

Acompañada con estos acordes: ..


     C#m      B     E     A
E|-|--4--|-|--2--|--0--|--0--|
B|-|--5--|-|--4--|--0--|--2--|
G|-|--6--|-|--4--|--1--|--2--|
D|-|--6--|-|--4--|--2--|--2--|
A|-|--4--|-|--2--|--2--|--0--|
e|-|--4--|-|-----|--0--|--0--|


C#m            B           E            A
Digo que todo esto tiene un porque
C#m            B            A
Te miras al espejo y gritas que pasa
C#m            B           E            A
Antes no te hablaba quizas no podia ver
C#m            B            A
Todo tu esfuerzo y los años pasan

CORO:
C#m                                    B
Y hoy que miro tus ojos noto el porque
A                              B
Quizas siempre lo supe y simplemente no lo queria ver
C#m                        B
Tanto tiempo sola para mi era normal
A                  B
pasaba el dia y tu dormias estando en soledad


--- C#m, B, E, A, C#m, B, A   ---


C#m            B           E            A
Tengo mas que claro se que me encerré
C#m            B            A
Me miraba al espejo y no veia nada
C#m            B           E            A
Tu conmigo al lado siempre como no pude ver
C#m            B            A
tus ojos que por dentro se quemaban


CORO:
C#m                                    B
Y hoy que miro tus ojos noto el porque
A                              B
Quizás siempre lo supe y simplemente no lo quería ver
C#m                        B
Tanto tiempo sola para mi era normal
A                  B
pasaba el día y tu dormías estando en soledad

---  C#m, B, E, A, C#m, B, A   ---

A       E                       D
Te recuerdo siempre a mi lado
A       E                       D
buscando todo para darmelo uohhh
A       E                       D
yo sentado aquí un dibujo que hare
A       E                       D
que nos dice ante yo hay estare?.


Alguna duda o sugerencia aca : za1tsev@

            
            
Suggest correction
Creating personal tab
Creating personal tab
You can edit any tab online and save it as your Personal.

You can edit, replace or remove any tab part or add personal notes – all changes will be seen only by you.

Personal tabs can be accessed anytime from any device, even offline.
Learn more »
Give kudos to tab author, rate the tab!
1 2 3 4 5
comments
print report bad tab
guest
Wanna post a correction for this tab? Suggest correction