Oops, an error
Loading. Please wait.

Ud. Es Hermosa tab

version 1
version 1

Whole song

44 views 1 this week
no commentswrite comment
1 2 3 4 5
3 more votes to show rating
add to favorites
×
Save as Personal and add changes to this tab that will be seen only by you. Learn more ›
×
You can save this tab as Personal to edit and correct it or add notes. All changes will be seen only by you. Learn more »
launch autoscroll
font size
0
reset
how to read this tab
guitar tuner
edit
Autoscroll
slow
fast
+/-
esc
set tempo
stop
La canción es simple, en la primera parte solo toca ese arpegio,
y cuando comienza la canción le toca como balada pero con una pausa
si escuchan la canción se darán cuenta.
Bueno esta canción no puede estar sin dedicación asi que va para
mi preciosa que ni bien escuche esta canción la saque para ella.

Majo solo te queria decir lo que es verdad?.

     C       C/B      Am7      Am7/G      F         F/C      G       G
e/-------------------------------------------------------------------3
b/------1--------3---------1--------1---------1--------1--------3----3
g/----0---0----0---0-----0---0----0---0-----3---3----3---3----0---0--0
d/-------------------------------------------------------------------0
a/--3-------2---------0----------------------------3-----------------2
E/------------------------------3--------1------------------3--------3
     Ahh    ahhh   ahh   ah..   Ahh     ahh    ahh           ahh ah..


C            C/B              Am7      Am7/G
Solo queria decirle que ud es hermosa
F             C                    G     G7
Solo queria decirle lo que es verdad
C            C/B              Am7      Am7/G
Como voy a callarme, esas son cosas
F             C                  G     G7
Que se dicen por simple sinceridad

C            C/B              Am7      Am7/G
Solo quería decirle que esta canción llevare su nombre
         F             F/C                     G   G*
Por la razon de que yo soy hombre, para su corazon

C            C/B              Am7      Am7/G
Solo queria decirle que usted es hermosa
F               C           G
Solo queria borrarle su soledad


     C       C/B      Am7      Am7/G      F         F/C      G       G
e/-------------------------------------------------------------------3
b/------1--------3---------1--------1---------1--------1--------3----3
g/----0---0----0---0-----0---0----0---0-----3---3----3---3----0---0--0
d/-------------------------------------------------------------------0
a/--3-------2---------0----------------------------3-----------------2
E/------------------------------3--------1------------------3--------3
     Ahh    ahhh   ahh   ah..   Ahh     ahh    ahh           ahh ah..


     C       C/B      Am7      Am7/G      F         F/C      G       G
e/-------------------------------------------------------------------3
b/------1--------3---------1--------1---------1--------1--------3----3
g/----0---0----0---0-----0---0----0---0-----3---3----3---3----0---0--0
d/-------------------------------------------------------------------0
a/--3-------2---------0----------------------------3-----------------2
E/------------------------------3--------1------------------3--------3
     Ahh    ahhh   ahh   ah..   Ahh     ahh    ahh           ahh ah..

C            C/B              Am7      Am7/G
Solo queria decirle que usted es hermosa
F             C                    G     G7
Que me de su sonrisa pa? respirar
C            C/B              Am7      Am7/G
Quiero que usted me acepte esta simple rosa
F                                G     G7
Seguro que aceptarla no le hara mal

C            C/B              Am7                Am7/G
Y quiero que ud comprenda como estoy yo con esta alegria en el corazon
F                C                   G    G7*
Que usted me regala escuchando esta cancion

C            C/B              Am7      Am7/G
Solo queria decirle que ud es hermosa
F                              G     G7
Solo queria decirle lo que es verdad

            
            
Suggest correction
Creating personal tab
Creating personal tab
You can edit any tab online and save it as your Personal.

You can edit, replace or remove any tab part or add personal notes – all changes will be seen only by you.

Personal tabs can be accessed anytime from any device, even offline.
Learn more »
Give kudos to tab author, rate the tab!
1 2 3 4 5
comments
print report bad tab
guest
Wanna post a correction for this tab? Suggest correction