Oops, an error
Loading. Please wait.

Generación Perdida tab

version 1
version 1

Whole song

11 views 1 this week
no commentswrite comment
1 2 3 4 5
3 more votes to show rating
add to favorites
×
Save as Personal and add changes to this tab that will be seen only by you. Learn more ›
×
You can save this tab as Personal to edit and correct it or add notes. All changes will be seen only by you. Learn more »
launch autoscroll
font size
0
reset
how to read this tab
guitar tuner
edit
Autoscroll
slow
fast
+/-
esc
set tempo
stop
Intro
-----
   G# G#  G#       F#
E|--------------------|
B|--------------------|
G|--------------------|
D|-6---6--------------|x 4 veces
A|-6---6--6-4----4-6--|
E|-4---4------4-6-----|

A F# D E

Estrofa
-------
        F#                     D         E6       Lick 1
Hablais de genes podridos con soltura y sin rubor
        A                      D         E6       Lick 1
como espejos mal pulidos reflejamos vuestro hedor
        F#                     D         E6          Lick 1
no entendeis de otros kaminos ni k el vuestro frakaso
        A                          D        E6        Lick 1
nos llamais balas perdidas pero es k el blanco kambio

Kambio:
-------
        B
Nos negais una kultura
       E6       F#6
k hace agua por dokier
        B
mientrastanto desde arriba
         G#          F#
juzgais nuestra inmadurez
       B
nos haceis saltar y luego
       E6           F#6
komprobamos k no hay red
       B
han de existir otras formas
       G#        F#
de enseñarnos a caer

Estribillo:
----------
     B     G#         E        G#  F#
Y k facil ahora enterrarnos en mierda
     B     G#         E        G#
reflejo de mierda k lo hagamos mejor
     B     G#         E        G#  F#
nadamos en vasos buskando respuestas
E                      F#
pero habeis dejado muy bajo el liston

(repite intro y hace:)

E|7-0-9-0-7-0-9-0-7-0-9-0-7-0-9-0-7-0-9-s12-|
B|------------------------------------------|
G|------------------------------------------|
D|------------------------------------------|
A|------------------------------------------|
E|------------------------------------------|

-7-0-9-0-7-0-9-0-7-0-9-0-7-0-9-0-7-0-9-0-7-0-9-X|
------------------------------------------------|
------------------------------------------------|
------------------------------------------------|
------------------------------------------------|
------------------------------------------------|

Punteo de bajo al final:
-----------------------
   B              B
G|-------------------------------|
D|--------------------------9-8--|
A|----------8-9-8---------------9|
E|-s9-s9-s9-------s9-s9-s-9------|

Lick 1:
-------
   A     F#       D       E
E|--------------------------|
B|--------------------------|
G|-9-9--9-------------------|
D|-------11--11-11-7-7--7-9-|
A|--------------------------|
E|--------------------------|

            
            
Suggest correction
Creating personal tab
Creating personal tab
You can edit any tab online and save it as your Personal.

You can edit, replace or remove any tab part or add personal notes – all changes will be seen only by you.

Personal tabs can be accessed anytime from any device, even offline.
Learn more »
Give kudos to tab author, rate the tab!
1 2 3 4 5
comments
print report bad tab
guest
Wanna post a correction for this tab? Suggest correction