Oops, an error
Loading. Please wait.

Vida Más Simple tab

version 1
version 1

Whole song

110 views 1 this week
no commentswrite comment
1 2 3 4 5
3 more votes to show rating
add to favorites
×
Save as Personal and add changes to this tab that will be seen only by you. Learn more ›
×
You can save this tab as Personal to edit and correct it or add notes. All changes will be seen only by you. Learn more »
launch autoscroll
font size
0
reset
how to read this tab
guitar tuner
edit
Autoscroll
slow
fast
+/-
esc
set tempo
stop
Intro:
1 |--2--2---0----------------------------|
2 |--3--3---0--0----1----1------3-----0--|
3 |--3--3---0--0----0----0------0-----0--|  Se repite 2 veces
4 |------------0----2----2------4-----0--|
5 |---------------0----0----3/5----3--2--|
6 |0--0---2--3---------------------------|


1 |--2--2---0----------------------------|
2 |--3--3---0--0----1----1----0----0-----|
3 |--3--3---0--0----0----0----0----0-----|  Y empieza la canción
4 |------------0----2----2----0----0-----|   con el primer riff
5 |---------------0----0-----------------|
6 |0--0---2--3--------------3----2-------|


1 |--2--2---0----------------------------|
2 |--3--3---0--0----1----1------3-----0--|
3 |--3--3---0--0----0----0------0-----0--|
4 |------------0----2----2------4-----0--|
5 |---------------0----0----3/5----3--2--|
6 |0--0---2--3---------------------------|
          Un palmar
1 |--2--2---0----------------------------|
2 |--3--3---0--0----1----1------3-----0--|
3 |--3--3---0--0----0----0------0-----0--|
4 |------------0----2----2------4-----0--|
5 |---------------0----0----3/5----3--2--|
6 |0--0---2--3---------------------------|
          baila con las brisas del mar
1 |--2--2---0----------------------------|
2 |--3--3---0--0----1----1------3-----0--|
3 |--3--3---0--0----0----0------0-----0--|
4 |------------0----2----2------4-----0--|
5 |---------------0----0----3/5----3--2--|
6 |0--0---2--3---------------------------|
          y al amanecer
1 |--2--2---0----------------------------|
2 |--3--3---0--0----1----1------3-----0--|
3 |--3--3---0--0----0----0------0-----0--|
4 |------------0----2----2------4-----0--|
5 |---------------0----0----3/5----3--2--|
6 |0--0---2--3---------------------------|
          se oye solo tranquilidad
1 |--2--2---0----------------------------|
2 |--3--3---0--0----1----1------3-----0--|
3 |--3--3---0--0----0----0------0-----0--|
4 |------------0----2----2------4-----0--|
5 |---------------0----0----3/5----3--2--|
6 |0--0---2--3---------------------------|
          Corazon
1 |--2--2---0----------------------------|
2 |--3--3---0--0----1----1------3-----0--|
3 |--3--3---0--0----0----0------0-----0--|
4 |------------0----2----2------4-----0--|
5 |---------------0----0----3/5----3--2--|
6 |0--0---2--3---------------------------|
          tu latido pide volver
1 |--2--2---0----------------------------|
2 |--3--3---0--0----1----1------3-----0--|
3 |--3--3---0--0----0----0------0-----0--|
4 |------------0----2----2------4-----0--|
5 |---------------0----0----3/5----3--2--|
6 |0--0---2--3---------------------------|
          tierra de mi amor
1 |--2--2---0----------------------------|
2 |--3--3---0--0----1----1------3-----0--|
3 |--3--3---0--0----0----0------0-----0--|
4 |------------0----2----2------4-----0--|
5 |---------------0----0----3/5----3--2--|
6 |0--0---2--3---------------------------|
          tu recuerdo vive sin poder

 CORO:

1 |0-0-0-0-0-0-0--2--2--2-2---0--0--0--0--0----|
2 |1-1-1-1-1-1-1--3--3--3-3---1--1--1--1--1----|
3 |0-0-0-0-0-0-0--2--2--2-2---0--0--0--0--0----|
4 |2-2-2-2-2-2-2--0--0--0-0---2--2--2--2--2----|
5 |0-0-0-0-0-0-0--------------3--3--3--3--3----|
6 |--------------------------------------------|
        Oh   mi Dios
1 |0-0-0-0-0-0-0-/-0--0--0--0---0--0--0--0--0----|
2 |1-1-1-1-1-1-1-/-3--3--3--3---1--1--1--1--1----|
3 |0-0-0-0-0-0-0-/-0--0--0--0---0--0--0--0--0----|
4 |2-2-2-2-2-2-2-/-4--4--4--4---2--2--2--2--2----|
5 |0-0-0-0-0-0-0-/-5--5--5--5---3--3--3--3--3----|
6 |----------------------------------------------|
         desde el cielo escucha mi voz
1 |0-0-0-0-0-0-0--2--2--2-2---0--0--0--0--0----|
2 |1-1-1-1-1-1-1--3--3--3-3---1--1--1--1--1----|
3 |0-0-0-0-0-0-0--2--2--2-2---0--0--0--0--0----|
4 |2-2-2-2-2-2-2--0--0--0-0---2--2--2--2--2----|
5 |0-0-0-0-0-0-0--------------3--3--3--3--3----|
6 |--------------------------------------------|
         Cuanto mas
1 |0-0-0-0-0-0-0--2--2--2--2--2--2--2-|
2 |1-1-1-1-1-1-1--0--0--0--0--0--0--0-|
3 |0-0-0-0-0-0-0--2--2--2--2--2--2--2-|
4 |2-2-2-2-2-2-2--1--1--1--1--1--1--1-|
5 |0-0-0-0-0-0-0--2--2--2--2--2--2--2-|
6 |-----------------------------------|
  tengo que rezar pidiendo mi regreso y...
1 |--2--2---0----------------------------|
2 |--3--3---0--0----1----1------3-----0--|
3 |--3--3---0--0----0----0------0-----0--|  2 veces
4 |------------0----2----2------4-----0--|
5 |---------------0----0----3/5----3--2--|
6 |0--0---2--3---------------------------|
      vida mas simple la de ayer
1 |--2--2---0----------------------------|
2 |--3--3---0--0----1----1------3-----0--|
3 |--3--3---0--0----0----0------0-----0--| 2 veces
4 |------------0----2----2------4-----0--|
5 |---------------0----0----3/5----3--2--|
6 |0--0---2--3---------------------------|
        vida mas simple la de ayer.


(el primer riff de la primera estrofa)
Un cafe
era el precio de la amistad
sin tener que hablar se ofrecia una mano fiel
la niñez respetaba sin preguntar
y siempre al comer
la familia unida en aquel lugar


Coro:
Oh mi Dios desde el cielo escucha mi voz
cuanto mas tengo que rezar pidiendo mi regreso y...
vida mas simple la de ayer
oye Florencia
vida mas simple la de ayer
vida mas dulce la de ayer
con sabor a chocolate
vida mas simple la de ayer

(El primer riff)
Vida mas simple
vida mas simmple hija mia
cuando uno es pequeñito asi como tu
la vida se ve de una manera mas simple
mas simplecita hay si
a tu lado yo soy feliz
vida mas simple.


Primer aporte lo saque de oído así que si no suena muy bien disculpen :)
Suggest correction
Creating personal tab
Creating personal tab
You can edit any tab online and save it as your Personal.

You can edit, replace or remove any tab part or add personal notes – all changes will be seen only by you.

Personal tabs can be accessed anytime from any device, even offline.
Learn more »
Give kudos to tab author, rate the tab!
1 2 3 4 5
comments
print report bad tab
guest
Wanna post a correction for this tab? Suggest correction