Oops, an error
Loading. Please wait.

Campo De Sueños tab

version 1
version 1

Whole song

14 views 1 this week
no commentswrite comment
1 2 3 4 5
3 more votes to show rating
add to favorites
×
Save as Personal and add changes to this tab that will be seen only by you. Learn more ›
×
You can save this tab as Personal to edit and correct it or add notes. All changes will be seen only by you. Learn more »
launch autoscroll
font size
0
reset
how to read this tab
guitar tuner
edit
Autoscroll
slow
fast
+/-
esc
set tempo
stop
Esta cancion es muy sencilla de tocar, para los adornos se utiliza
mucho el dedo meñique.

aqui les anoto como es el arpegio de las notas base

   C                Bb               F                G
e---------------  ---------------  ---------------  ---------------
B------1-----1--  ------3-----3--  ------1-----1--  ------3-----3--
G----0-----0----  ----3-----3----  ----2-----2----  ----4-----4----
D--------2------  --------3------  --------3------  --------3------
A--3------------  --1------------  --3------------  --3------------
G---------------  ---------------  ---------------  ---------------


aqui les anoto las variaciones que hay en las notas

   C*
e--3---1---1----------------------
B----0---1---0-3---1---0-----1-1--
G----------------0---0---0---0-0--
D---------------------------------
A--3-----------3-----------3---3--
G---------------------------------

   C**
e-----------------------------------------------
B--------3-3-3^1^0^1^0^1-------3-3-3^1^0^1^0^1--
G------0---------------------0------------------
D----2---------------------2--------------------
A--3---------3-----------3---------3------------
G-----------------------------------------------

   C***
e---------------------------------------------------------------
B------1-----1-----1-----1-----1-----1-----1-----1-----1-----1--
G----0-----0-----0-----0-----0-----0-----0-----0-----0-----0----
D---------------------------------------------------------------
A--3-----2-----1-----0-----------------------------3-----2------
G--------------------------3-----2-----1-----0------------------

   G*
e--------------3----
B------3-----3---3--
G----4-----4--------
D--------5----------
A--5----------------
G-------------------

   Bb*               F*
e----------------  ---------------
B--3------3------  --1-----1------
G----3------3----  ----2-----2----
D------3------3--  ------3-----3--
A--1------1------  --3-----3------
E----------------  ---------------

   C****             G**
e----------------  ---------------
B--1------1------  --3-----3------
G----0------0----  ----4-----4----
D------2------2--  ------5-----5--
A--3------3------  --5-----5------
E----------------  ---------------

espero que les sirva, aui esta:

Intro

    Bb     F      C      F
e--------------------------------
B---3------1------1------1-------
G-----3------2------0------2-----
D-------3------3------2------3---
A---1------3------3------3-------
E--------------------------------


    Bb     F      C
e--------------------------------------------------------------------
B---3------1------1------------3-3-3^1^0^1^0^1-------3-3-3^1^0^1^0^1-
G-----3------2------0--------0---------------------0-----------------
D-------3------3------2----2---------------------2-------------------
A---1------3------3------3---------3-----------3---------3-----------
E--------------------------------------------------------------------


    C
e---------------------------------------------------------
B-------1-----1-----1-----1-----1-----1-----1-----1-------
G-----0-----0-----0-----0-----0-----0-----0-----0---------
D---------2-----------2-----------2-----------2-----------
A---3-----------3-----------3-----------3-----------------
E---------------------------------------------------------


C                        Bb
Uno se cura todo cuando duerme,
  C                              F  G
cuando uno duerme y sueña ese lugar.
Bb                          F
Ese lugar de campo siempre verde
                      C*
y las colinas bajas, sólidas

de un cielo horizontal.

Bb                         F
Uno se cura todo cuando habita
                   C
una casita con ventanas
                         C**
donde siempre hay que mirar.


Bb                           F
Hoy desperté soñando con el sitio
                  C*
donde imaginé de niño

que de grande iba a habitar.

    Bb     F      C      F
e--------------------------------
B---3------1------1------1-------
G-----3------2------0------2-----
D-------3------3------2------3---
A---1------3------3------3-------
E--------------------------------


    Bb     F      C
e--------------------------------------------------------------------
B---3------1------1------------3-3-3^1^0^1^0^1-------3-3-3^1^0^1^0^1-
G-----3------2------0--------0---------------------0-----------------
D-------3------3------2----2---------------------2-------------------
A---1------3------3------3---------3-----------3---------3-----------
E--------------------------------------------------------------------

C                                  Bb
El suelo ahí en mi casa es de cuadritos.
  C                              F   G
Cuadros negros y blancos de ajedrez.
Bb                                 F
Con tres ventanas, vivo en un cuartito,
                     C*
desde donde veo como es

todo al derecho y al revés.

Bb                       F
Voy adelante con mi mecedora,
                            C
o  hacia atrás, según me empuje
                       F   G*
o me recline con los pies.

Bb                           F
Desde mi puesto tengo buena vista.
    C                            G
Un campo de sueños tengo por jardín.
Bb                         F
Un camino de piedras redonditas,
                           C
que empezó en mi puerta y parte
                         F             G*
serpenteando a algún confín siempre mejor.

 Bb                          F
Todo sucede y va pasando a diario.
                  C*
Las mañanas son eternas,

sopla el viento y brilla el sol.

    Bb     F      C      F
e--------------------------------
B---3------1------1------1-------
G-----3------2------0------2-----
D-------3------3------2------3---
A---1------3------3------3-------
E--------------------------------


    Bb     F      C
e--------------------------------------------------------------------
B---3------1------1------------3-3-3^1^0^1^0^1-------3-3-3^1^0^1^0^1-
G-----3------2------0--------0---------------------0-----------------
D-------3------3------2----2---------------------2-------------------
A---1------3------3------3---------3-----------3---------3-----------
E--------------------------------------------------------------------

 C***
Hay cuentos de conejos, comadrejas, lobos
                           F             G*
y zorritos buenos que vendrán para almorzar.
 C***
Conforme a mi entender todo es correcto,
                                        F          G*
el tramposo se cae al pozo, ya el honrado lo vencerá.


Bb*                            F*
Yo soy un gnomo sabio cuando duermo,
   C****                              G**
y al despertarme me he encontrado al fin
Bb*                              F*
tan lejos de los campos de mis sueños.
                         C****
Me hice un grandulón risueño,
                            C**
y me pregunto: ¿qué hago aquí?


 Bb                               F
No me hagáis caso, sólo estoy pensando
  C                           F             G
si el colorín colorado no me va a dejar dormir.
Bb                         F
Apareció y me levantó temprano
                  C          F         G*
para contaros hermanos,. . . los cuentos que le aprendí.

    Bb     F      C      F
e--------------------------------
B---3------1------1------1-------
G-----3------2------0------2-----
D-------3------3------2------3---
A---1------3------3------3-------
E--------------------------------

    Bb     F      C      F
e--------------------------------
B---3------1------1------1-------
G-----3------2------0------2-----
D-------3------3------2------3---
A---1------3------3------3-------
E--------------------------------

    Bb     F      C      F
e--------------------------------
B---3------1------1------1-------
G-----3------2------0------2-----
D-------3------3------2------3---
A---1------3------3------3-------
E--------------------------------

    Bb     F      C
e------------------------0---
B---3------1------1------1---
G-----3------2------0----0---
D-------3------3------2--2---
A---1------3------3------3---
E------------------------0---

Eso es todo amigos! y que les valla bien bonito
escandilabia@

            
            
Suggest correction
Creating personal tab
Creating personal tab
You can edit any tab online and save it as your Personal.

You can edit, replace or remove any tab part or add personal notes – all changes will be seen only by you.

Personal tabs can be accessed anytime from any device, even offline.
Learn more »
Give kudos to tab author, rate the tab!
1 2 3 4 5
comments
print report bad tab
guest
Wanna post a correction for this tab? Suggest correction