Oops, an error
Loading. Please wait.

De La Canción De Protesta tab

version 4
version 4

Whole song

Interactive

16 views 1 this week
no commentswrite comment
1 2 3 4 5
3 more votes to show rating
add to favorites
×
Save as Personal and add changes to this tab that will be seen only by you. Learn more ›
×
You can save this tab as Personal to edit and correct it or add notes. All changes will be seen only by you. Learn more »
launch autoscroll
font size
0
reset
how to read this tab
guitar tuner
edit
Autoscroll
slow
fast
+/-
esc
set tempo
stop
una cancion que expresa una ideologia completa,que seguramente a mas
de uno nos da rabia no haberla escrito,la cancion esta muy sencilla
,solo tomen los tiempos correctos porque es una cancion con pausas,
la transcripcion la dividi en partes ,al final les pongo el
orden,esta trabajo se lo dedico a las personas que me dan animos
todos los dias, a aquellas que creen en mi y que me apoyan en esto
 de la guitarra,y tambien,a las que indirectamente,
me dan la inspiracion para componer, a RMS, a AAHG, y a MAPR


intro:

e|-----------0-2-3-----5-7-8-7-5---5-------------0-------------------
B|-0-1-0-3-----------0-----------8---8-7-5---3-------3---1---1h0-----
G|-0-------2-------------------------------4---4---0---0---2-----2---
D|-------------------------------0---------------------------------2-
A|-------------------------0---------------------3---2---0-----------
E|-3-----2---------0-----------------------3-------------------------

e|-----0-------------------------------0-2-3-------0---------------------
B|-0-----0-------3---1h0-----0-1-0-3-------------0-0-0---0-6-5---5h3-5----
G|---0---------2---2-----2-----------2---------0-------0-------3-------3--
D|-----------0-------------0---------------------------------------------5
A|---------------------------------------------------------3-------------
E|-3-------2-----------------3-----2---------0---------------------------

A:

e|---------------------------------------------------
B|-----3-----3---3-----3---1-------------------------
G|-----2-----2---2-----2---2--------------------------
D|---0-----0---------0-------------------------------
A|---------------------------------------------------
E|-2-----2-----2---2-----2---------------------------

B:

e|-------------------------------------------------------3h2---2--
B|-------3-------3-------------3-----------3-------3---------3----
G|-----0-------2-------0h2-0-----0-------0-------0-----2----------
D|---0-------0-------2-------2-----2---2-------0-----0------------
A|-----------------------------------3-------2--------------------
E|-3-------2-------0----------------------------------------------

C:

e|-----------2-----2h0---------------------0-----------3---------3--
B|-----1-----0-------------0h2h0-------3-----1---3-------3-----3----
G|-----3---2-----0---------------2---0---0-----0-----2-------2------
D|---2-------------------2-------------------------0----------------
A|-3-----2-------------0-----------3--------------------------------
E|-------------0-------------------------------------------2--------

e|----3---3-----------------------------------0-------1-----0-------
B|------1---1-----3---3-----3-----3-------3-------3-----1-----1---3-
G|--0-----------2---2---2-2---------0-----0-----0---0-----2-----0---
D|--------0---------------------2-------2---2-----------------------
A|-3----------0-----------------------0---------------------3-------
E|----------------2---3---2---0-----------------------1-----------2-

D:

e|-3----3----3-3-3----3-3-3-5--2-3-2-3------
B|-3----3----3-3-3----3-3-3-5--3-3-3-3-------
G|-0----2----0-0-0----0-2-0-0--2-2-2-2---------
D|-0----0----2-2-2----0-0-2-4--0-0-0-0---------
A|-2----0----2-3-2----2-0-2-4-----------------
E|-3----2----0-0-0----3-2-0-0---------------------

E:

e|------------------------------------------0-------3h2---2-1-----0------
B|------3------3------3-----3---3---3---1-----1---------3-----1-----1---3
G|----0------2------0---2-----2---0---0---2-------2-------------2-----0--
D|--0------0------2-------0---------------------0------------------------
A|------------------------------3---2---0-------------------------3------
E|3------2------0---------------------------3---------------1-----------2


orden:
intro,a,b,c,b,c,dx2,b,e,primera parte del intro,b,c,e,e,d,d,b,e,b,e,b,intro
con final en f.

si me falto alguna parte disculpen aqui esta mi correo por cualquier cosa
elchaviz@

F:

e|---------------------3--------------------------------------
B|-6-5---3-1-------0h1-3--------------------------------------
G|-----3-2-2-2---0-----0--------------------------------------
D|-----------------0h2-0-------------------------------------
A|-3-------------------2--------------------------------------
E|-------2-----3-------3---------------------------------------
Suggest correction
Creating personal tab
Creating personal tab
You can edit any tab online and save it as your Personal.

You can edit, replace or remove any tab part or add personal notes – all changes will be seen only by you.

Personal tabs can be accessed anytime from any device, even offline.
Learn more »
Give kudos to tab author, rate the tab!
1 2 3 4 5
comments
print report bad tab
guest
Wanna post a correction for this tab? Suggest correction