Oops, an error
Loading. Please wait.

Días De Sombrilla tab

version 1
version 1

Whole song

58 views 1 this week
no commentswrite comment
1 2 3 4 5
3 more votes to show rating
add to favorites
×
Save as Personal and add changes to this tab that will be seen only by you. Learn more ›
×
You can save this tab as Personal to edit and correct it or add notes. All changes will be seen only by you. Learn more »
launch autoscroll
font size
0
reset
how to read this tab
guitar tuner
edit
Autoscroll
slow
fast
+/-
esc
set tempo
stop
Esta rola de Delgadillo esta entonada en 'Si' como muchos transcriptores
han atinado en versiones anteriores. La cuestión es que el registro es
de Sol, por lo que tentrán que utilizar el capo en el CUARTO TRASTE
para transportarla al tono original de Fernando.

Todos los acordes y la tablatura, no contempla el Capo por lo que deberán
disculparme los amantes de lo propio. Pienso que es más sencillo de 
aprender si le llamamos a los acordes por su forma y no por su tono (cuando
hay de por medio un capotrasto) .Hay dos opciones 
1. La aprendemos al aire y después ponemos el capo ó 
2. Ponemos el Capo desde el principio pero tomaremos el 4 traste como el
0 (Cero para el Tab y acordes).

Esta rola va dedicada a la gente que me la ha pedido y que le pido
disculpas por la tardanza (No las enumero porque no se trata de eso)

Esta versión es del Disco Feb 13 Vol 3 (que sólo se consigue o consiguó
del sitio de Fernando  

NOTA IMPORTANTE: Salvo en el Tab, el 99.99% de la canción se debe tocar
suprimiento la primera cuerda, para que la puedan oir igual que como la
toca el Fernando (este truco es típico de los troveros y no sé si lo
hacen para despistar o qué)


Acordes:
G        32003X
G/B      32003x (Bajo en la quinta)
C        03201X
Cm       x3101x
Cmaj7    03200X
Gmajadd4 32001X
Dmaj     x0423X


INTRO:
    G                        D                      C            D
 \______/                \______/                \______/    \______/
  ||||||                  ||||||                  ||||1|      ||||1|
  |1||||                  1||2|3                  ||2|||      2||3||
  2|||34                  ||||4|                  |3||||      ||||4|
  ||||||                  ||||||                  ||||||      ||||||

E-3---------------------|-2---------------------|------------2----------|
A-----------------------|-----------------------|-3---------------------|
D----0-----0----0----0--|----0-----0----0----0--|----2----------0-------|
g------0----------0-----|------2----------2-----|------0----------2-----|
b------3----------3-----|------3----------3-----|------------3------1---|
e------------3----------|------------2----------|-0------0--------------|


 Gmajadd4                    G7                      C
 \______/                 \______/                \______/
  ||||1|                   |||||1                  ||||1|
  |2||||                   |2||||                  ||2|||
  3|||||                   3|||4|                  |3||||
  ||||||                   ||||||                  ||||||

E-3---------------------|-3---------------------|-----------------------|
A-----------------------|-------------2---------|-3---------------------|
D---0-----------0-------|----0------------------|---2-------------------|
g-----0----2------0-----|------0---------0------|-----0-------0-----0---|
b-1------0---0------0---|--------3---------0----|-------1--0-----1------|
e-----------------------|---------------------1-|-----------------------|
                                                 \_________Riff1_______/ 

    D9                    Gmajadd4                   G7
 \______/                 \______/                \______/
  ||||1|                   ||||1|                  |||||1
  2||3||                   |2||||                  |2||||
  ||||4|                   3|||||                  3|||4|
  ||||||                   ||||||                  ||||||

E-2---------------------|-3---------------------|-3---------------------|
A-----------------------|-----------------------|-------------2---------|
D---0---------0--4------|---0-----------0-------|----0------------------|
g-----2-------------2---|-----0----2------0-----|------0---------0------|
b-------3--1------------|-1------0---0------0---|--------3---------0----|
E-----------------------|-----------------------|---------------------1-|


    C                        G                       
 \______/                 \______/                \______/    \______/
  ||||1|                   ||||1|                  ||||||      ||||||
  ||2|||                   |2||||                  ||||||      |||1||
  |3||||                   3|||||                  ||||2|      ||||2|
  ||||||                   ||||||                  ||||||      ||3|||

E-----------------------|-3---------------------|-----------------------|
A-3---------------------|-----------------------|--0--------------------|
D---2-------------------|---0----------0--------|-----0-------4---------|
g-----0-------0-----0---|---------2p0-----------|--------0h2-----2------|
b-------1--0-----1------|-----1p0---------1--3--|-------------------3---|
e-----------------------|-----------------------|-----------------------|


(OJO Arpegios sin la primera cuerda)

       G           G/B
Me gustaban sus caricias
      C    Riff1
y su pelo
      D/F#
y sus horas que eran mías
      G
y mis labios en su piel.


       G     
Y el aroma de ese 
 G/B           C    Cm
perfume indiscreto
         G
que acostumbraba en el cuello
       Dmaj
donde tanto le busqué.


       G          G/B
Me gustaba su llegada
          C   Riff1
y la esperaba
    D/F#
asomado a la ventana
       G
desde donde veo pasar

       G        
El vaivén de un mundo
 G/B        C   Cm
tan desconocido
       G 
que no sé si la he encontrado allí
      Dmaj
o quizá en otro lugar


G G/B

                  C
Me gustaban esas tardes 
                 D/F#
y hallar en los parques
las bancas 
        G
que le hacían lugar

G  G/B 
    A unos novios 
        C
y a los otros 
            D/F#
que como nosotros tambén
       G
lo íbamos a intentar


G         G/B          C
   Me gustaban las bombillas
                D/F#
los días de sombrillas
            G
y tener su mano después


G       G/B        C
  Allí cómo me gustaba 
             D/F#
besarle y mirarle
y volverle
     C        G
a besar otra vez.

    G                        D                      C            D
 \______/                \______/                \______/    \______/
  ||||||                  ||||||                  ||||1|      ||||1|
  |1||||                  1||2|3                  ||2|||      2||3||
  2|||34                  ||||4|                  |3||||      ||||4|
  ||||||                  ||||||                  ||||||      ||||||

E-3---------------------|-2---------------------|------------2----------|
A-----------------------|-----------------------|-3---------------------|
D----0-----0----0----0--|----0-----0----0----0--|----2----------0-------|
g------0----------0-----|------2----------2-----|------0----------2-----|
b------3----------3-----|------3----------3-----|------------3------1---|
e------------3----------|------------2----------|-0------0--------------|


 Gmajadd4                    G7                      C
 \______/                 \______/                \______/
  ||||1|                   |||||1                  ||||1|
  |2||||                   |2||||                  ||2|||
  3|||||                   3|||4|                  |3||||
  ||||||                   ||||||                  ||||||

E-3---------------------|-3---------------------|-----------------------|
A-----------------------|-------------2---------|-3---------------------|
D---0-----------0-------|----0------------------|---2-------------------|
g-----0----2------0-----|------0---------0------|-----0-------0-----0---|
b-1------0---0------0---|--------3---------0----|-------1--0-----1------|
e-----------------------|---------------------1-|-----------------------|
                                                  

    D9                        C                
 \______/                 \______/                
  ||||1|                   ||||1|                  
  2||3||                   ||2|||                  
  ||||4|                   |3||||                  
  ||||||                   ||||||                  

E-2---------------------|-----------------------|
A-----------------------|-3-----------------3---|
D---0------------0------|---2----2-------2------|
g-----2-------2----2----|-----0-------0---------|
b-------3--1------------|----------1------------|
E-----------------------|-----------------------|

       G          G/B
Me gustaba la llegada
        C
de las horas de llover
      D/F#
y me gustaban su prisa
         G
y cómo flotaban sus pies.

            G
Y aunque había
         G/B 
sus imposibles
        C            Cm 
me los contagiaba a mí
       G
le conservo en la fotografía 
     Dmaj
que no le devolví

            G
O ella hoy vive
         G/B           C 
donde aguardan mis recuerdos
             D/F#
y a otra, que es muy parecida
      G 
huye con ojos de ayer

        G              G/B
yo sé que ya no es la misma
          C    Cm
pero  entiendo
           G
que hay algunas ocasiones
        Dmaj        
que me gustaría 
    G G/B C D/F# G 
volveeeeeeeeer.

G G/B C D/F# G


Que se diviertan..!
Saludox!

            
            
Suggest correction
Creating personal tab
Creating personal tab
You can edit any tab online and save it as your Personal.

You can edit, replace or remove any tab part or add personal notes – all changes will be seen only by you.

Personal tabs can be accessed anytime from any device, even offline.
Learn more »
Give kudos to tab author, rate the tab!
1 2 3 4 5
comments
print report bad tab
guest
Wanna post a correction for this tab? Suggest correction