Oops, an error
Loading. Please wait.

Hoy Hace Un Buen Día tab

version 2
version 2

Whole song

Interactive

34 views 1 this week
no commentswrite comment
1 2 3 4 5
3 more votes to show rating
add to favorites
×
Save as Personal and add changes to this tab that will be seen only by you. Learn more ›
×
You can save this tab as Personal to edit and correct it or add notes. All changes will be seen only by you. Learn more »
launch autoscroll
font size
0
reset
how to read this tab
guitar tuner
edit
Autoscroll
slow
fast
+/-
esc
set tempo
stop
Saludos de nuevo, soy yo otra vez, bueno solo quiero decir 
que esta es mi segunda TAB, y espero que les agrade tanto 
como a mi, al igual que la anterior también esta es de 
Fernando, y es que es un tipo con canciones muy buenas, 
creo que eso es todo

Esta canción es muy buena, más para los que deberas tenemos 
sentimiento nacionalista, ojalá les guste.

NOTA:
El ritmo es demasiado rápido, así que practíquenla mucho para que les salga


INTRO:
1|--------------------------------------------------------------|e
2|--------3-----------3-----------3-----------3-----------3-----|b
3|-----0------O-----0-----0-----2-----2-----2-----2-----0-----0-|g
4|---0------O-----0-----0-----0-----0-----0-----0-----0-----0---|D
5|--------------------------------------------------------------|A
6|-3------------3-----------2-----------2-----------0-----------|E

1|---------------------------------|e
2|-----3---3-----3---3-------3-----|b
3|---0---0-----0---0-------0-----0-|g
4|-2---------0-----------0-----0---|D
5|---------------------------------|A
6|---------------------2-----------|E

1|--------------------------------------------------------------|e
2|--------3-----------3-----------3-----------3-----------3-----|b
3|-----0------O-----0-----0-----2-----2-----2-----2-----0-----0-|g
4|---0------O-----0-----0-----0-----0-----0-----0-----0-----0---|D
5|--------------------------------------------------------------|A
6|-3------------3-----------2-----------2-----------0-----------|E

1|---------------------------------|e
2|-----3---3-----3---3-------3-----|b
3|---0---0-----0---0-------0-----0-|g
4|-2---------0-----------0-----0---|D
5|---------------------------------|A
6|---------------------2-----------|E


1|--------------------------------------------------------------|e
2|--------3-----------3-----------3-----------3-----------3-----|b
3|-----0------O-----0-----0-----2-----2-----2-----2-----0-----0-|g
4|---0------O-----0-----0-----0-----0-----0-----0-----0-----0---|D
5|--------------------------------------------------------------|A
6|-3------------3-----------2-----------2-----------0-----------|E
  En  esta  tierra  he  visto  mi  primera  luz    he  visto  y

1|---------------------------------|e
2|-----3---3-----3---3-------3-----|b
3|---0---0-----0---0-------0-----0-|g
4|-2---------0-----------0-----0---|D
5|---------------------------------|A
6|---------------------2-----------|E
 veo luz tierra firme y basto cielo

1|--------------------------------------------------------------|e
2|--------3-----------3-----------3-----------3-----------3-----|b
3|-----0------O-----0-----0-----2-----2-----2-----2-----0-----0-|g
4|---0------O-----0-----0-----0-----0-----0-----0-----0-----0---|D
5|--------------------------------------------------------------|A
6|-3------------3-----------2-----------2-----------0-----------|E
 Todo  mi entorno está  entendido en el  amor    que nos tuvieron 

1|---------------------------------|e
2|-----3---3-----3---3-------3-----|b
3|---0---0-----0---0-------0-----0-|g
4|-2---------0-----------0-----0---|D
5|---------------------------------|A
6|---------------------2-----------|E
   los  que  fueron  hace  tiempo

1|-----------------------------------------------------------------------|e
2|--------3-----------3-----------3-----------3--------------------3-----|b
3|-----0------O-----0-----0-----2-----2-----2-----2--------------0-----0-|g
4|---0------O-----0-----0-----0-----0-----0-----0--------------0-----0---|D
5|-----------------------------------------------------------------------|A
6|-3------------3-----------2-----------2--------------------0-----------|E
 Y hoy hace un buen día para hablar de los que están aquí      trazando a 

1|---------------------------------|e
2|-----3---3-----3---3-------3-----|b
3|---0---0-----0---0-------0-----0-|g
4|-2---------0-----------0-----0---|D
5|---------------------------------|A
6|---------------------2-----------|E      G
diario el bienestar de todo aquel que   vendrá

1|--------------------------------------------------------------|e
2|--------3-----------3-----------3-----------3-----------3-----|b
3|-----0------O-----0-----0-----2-----2-----2-----2-----0-----0-|g
4|---0------O-----0-----0-----0-----0-----0-----0-----0-----0---|D
5|--------------------------------------------------------------|A
6|-3------------3-----------2-----------2-----------0-----------|E
   como  precederá  la  aurora  al  sol  de  diario ,  como 

1|---------------------------------|e
2|-----3---3-----3---3-------3-----|b
3|---0---0-----0---0-------0-----0-|g
4|-2---------0-----------0-----0---|D
5|---------------------------------|A
6|---------------------2-----------|E     G
  sabemos   que   mañana   será         igual

1|--------------------------------------------------------------|e
2|--------3-----------3-----------3-----------3-----------3-----|b
3|-----0------O-----0-----0-----2-----2-----2-----2-----0-----0-|g
4|---0------O-----0-----0-----0-----0-----0-----0-----0-----0---|D
5|--------------------------------------------------------------|A
6|-3------------3-----------2-----------2-----------0-----------|E
  por que así se ha venido haciendo con los años que transcurren

1|-----------------------------------------------------|e
2|-----------3-----------3-----------3-----------3-----|b
3|---------0-----0-----0-----0-----0-----0-----0-----0-|g
4|-2-----0-----0-----0-----0-----0-----0-----0-----0---|D
5|-----------------------------------------------------|A
6|---2-3-----------2-----------2-----------0-----------|E
   y se van

1|---------------------------------|e
2|-----3---3-----3---3-------3-----|b
3|---0---0-----0---0-------0-----0-|g
4|-2---------0-----------0-----0---|D
5|---------------------------------|A
6|---------------------2-----------|E

1|--------------------------------------------------------------|e
2|--------3-----------3-----------3-----------3-----------3-----|b
3|-----0------O-----0-----0-----2-----2-----2-----2-----0-----0-|g
4|---0------O-----0-----0-----0-----0-----0-----0-----0-----0---|D
5|--------------------------------------------------------------|A
6|-3------------3-----------2-----------2-----------0-----------|E
  En  esta  tierra  en  donde  puedo  caminar  bajo  la  dirección 

1|---------------------------------|e
2|-----3---3-----3---3-------3-----|b
3|---0---0-----0---0-------0-----0-|g
4|-2---------0-----------0-----0---|D
5|---------------------------------|A
6|---------------------2-----------|E
   le ponga a mis pasos

1|--------------------------------------------------------------|e
2|--------3-----------3-----------3-----------3-----------3-----|b
3|-----0------O-----0-----0-----2-----2-----2-----2-----0-----0-|g
4|---0------O-----0-----0-----0-----0-----0-----0-----0-----0---|D
5|--------------------------------------------------------------|A
6|-3------------3-----------2-----------2-----------0-----------|E
  Siempre  habrá  tiempo  para  venirle  a  cantar  por ser lo

1|---------------------------------|e
2|-----3---3-----3---3-------3-----|b
3|---0---0-----0---0-------0-----0-|g
4|-2---------0-----------0-----0---|D
5|---------------------------------|A
6|---------------------2-----------|E
  más que se ofrecer como regalo

1|--------------------------------------------------------------|e
2|--------3-----------3-----------3-----------3-----------3-----|b
3|-----0------O-----0-----0-----2-----2-----2-----2-----0-----0-|g
4|---0------O-----0-----0-----0-----0-----0-----0-----0-----0---|D
5|--------------------------------------------------------------|A
6|-3------------3-----------2-----------2-----------0-----------|E
  Me dio un lugar donde al volver con gusto se decir es mi país

1|---------------------------------|e
2|-----3---3-----3---3-------3-----|b
3|---0---0-----0---0-------0-----0-|g
4|-2---------0-----------0-----0---|D
5|---------------------------------|A
6|---------------------2-----------|E     G
  esta  es  mi  tierra y esta es su    canción

D/F#                        Em/G
una canción como todas las que se han hecho

          C?            D/F#              G 
tan solo que con esta quiero hacer mención

           D/F#                           Em/G
de todo el bien que me hizo nacer de este pueblo

         C?       D/F#    G  
y que me parte el corazón

               D/F#      Em/G                C   C/B  C/A  C/D  
que hablar de México siempre me inflama el pecho.

       G                          D/F#
Y si miramos hacia atrás de donde fuimos a empezar

       Em/G                         C          D/F#
y encontramos los antiguos que formaron un lugar

        G                           D/F#
pero un buen día se marcharon y aprendimos a decir

         Em/G                      Csus2/E      G  
grandes fueron los viajeros que cruzaron, por aquí.

 D/F# Em/G Csus2/E D/F#


1|--------------------------------------------------------------|e
2|--------3-----------3-----------3-----------3-----------3-----|b
3|-----0------O-----0-----0-----0-----0-----0-----0-----0-----0-|g
4|---0------O-----0-----0-----0-----0-----0-----0-----0-----0---|D
5|--------------------------------------------------------------|A
6|-3------------3-----------3-----------3-----------3-----------|E

1|--------------------------------------------------------------|e
2|--------3-----------3-----------3-----------3-----------3-----|b
3|-----0------O-----0-----0-----2-----2-----2-----2-----0-----0-|g
4|---0------O-----0-----0-----0-----0-----0-----0-----0-----0---|D
5|--------------------------------------------------------------|A
6|-3------------3-----------2-----------2-----------0-----------|E
   En  esta  tierra  conocí  la  dignidad     del     que 

1|---------------------------------|e
2|-----3---3-----3---3-------3-----|b
3|---0---0-----0---0-------0-----0-|g
4|-2---------0-----------0-----0---|D
5|---------------------------------|A
6|---------------------2-----------|E
   para  ver  crecer  los  suyos

1|--------------------------------------------------------------|e
2|--------3-----------3-----------3-----------3-----------3-----|b
3|-----0------O-----0-----0-----2-----2-----2-----2-----0-----0-|g
4|---0------O-----0-----0-----0-----0-----0-----0-----0-----0---|D
5|--------------------------------------------------------------|A
6|-3------------3-----------2-----------2-----------0-----------|E
   del que se esfuerza en superar su condición aún a pesar de

1|---------------------------------|e
2|-----3---3-----3---3-------3-----|b
3|---0---0-----0---0-------0-----0-|g
4|-2---------0-----------0-----0---|D
5|---------------------------------|A
6|---------------------2-----------|E
   cruzar tiempos de infortunio

1|-----------------------------------------------------------------------|e
2|--------3-----------3-----------3-----------3--------------------3-----|b
3|-----0------O-----0-----0-----2-----2-----2-----2--------------0-----0-|g
4|---0------O-----0-----0-----0-----0-----0-----0--------------0-----0---|D
5|-----------------------------------------------------------------------|A
6|-3------------3-----------2-----------2--------------------0-----------|E
 Y hoy hace un buen día para hablar de los que están aquí      trazando a 

1|---------------------------------|e
2|-----3---3-----3---3-------3-----|b
3|---0---0-----0---0-------0-----0-|g
4|-2---------0-----------0-----0---|D
5|---------------------------------|A
6|---------------------2-----------|E      G
diario el bienestar de todo aquel que   vendrá

D/F#                       Em/G
de la simiente que se llega al semillero

                 C?          D/F#           G 
que hasta esta tierra fértil un día arribaran

           D/F#                   Em/G
y no hace falta repetir como los quiero

          C?    D/F#   G 
si lo he dicho tanto ya

               D/F#          Em/G             C    C/B  C/A  C/D  
que hablar de amor es bueno cuando se es sincero.


            G                          D/F#
Y si ellos miran hacia atrás de lo que les toca empezar

       Em/G                     C?        D/F#      
y nos hallan a nosotros que formamos un lugar

             G                        D/F#
que un buen día nos marcharemos y tal vez podrán decir

       Em/G                         Csus2/E
grandes fueron los viajeros que cruzaron

        Em/G                      Am/G
grandes fueron los viajeros que cruzaron

       C?             C/B           C/A          C/D          G  
en verdad que fueron grandes los viajeros que cruzaron por aquí.

D/F# Em/G C? D/F# Csus2/E  |  D/F# Csus2/E C? D/F# G4 G...FIN
                           |
                           |
                           |
                           | a partir de éstos acordes se toca una sola 
                             vez hacia abajo y se pasa al siguiente, esto 
                             se debe hacer rápidamente  par darle el sonido 
                             igual del final 


ACORDES                 
G4         320013                   
D/F#       200233                   
Em/G       022033                  
Csus2/E    032033                    
C?         032013                  
C/B        020013                  
C/A        002013
C/D        000213
Am/G       002213

            
            
Suggest correction
Creating personal tab
Creating personal tab
You can edit any tab online and save it as your Personal.

You can edit, replace or remove any tab part or add personal notes – all changes will be seen only by you.

Personal tabs can be accessed anytime from any device, even offline.
Learn more »
Give kudos to tab author, rate the tab!
1 2 3 4 5
comments
print report bad tab
guest
Wanna post a correction for this tab? Suggest correction