Oops, an error
Loading. Please wait.

Hoy Hace Un Buen Día tab

version 3
version 3

Whole song

Interactive

13 views 1 this week
no commentswrite comment
1 2 3 4 5
3 more votes to show rating
add to favorites
×
Save as Personal and add changes to this tab that will be seen only by you. Learn more ›
×
You can save this tab as Personal to edit and correct it or add notes. All changes will be seen only by you. Learn more »
launch autoscroll
font size
0
reset
how to read this tab
guitar tuner
edit
Autoscroll
slow
fast
+/-
esc
set tempo
stop
AQUÍ ESTA LA VERSIÓN DE ESTA CANCIÓN COMO SUENA EN EL DISCO DE 
FEBRERO 13 VOL. 2

(Fernando dice)  Haber si les gusta esta

INTRO 
1|-------------|e
2|-------3-----|b
3|-----0-----0-|g    G 
4|---0-----0---|D 
5|-------------|A
6|-3-----------|E

RIFF
1|--------------------------------------------------------------|e
2|--------3-----------3-----------3-----------3-----------3-----|b
3|-----0------O-----0-----0-----2-----2-----2-----2-----0-----0-|g
4|---0------O-----0-----0-----0-----0-----0-----0-----2-----2---|D
5|--------------------------------------------------------------|A
6|-3------------3-----------2-----------2-----------0-----------|E

1|---------------------------------|e
2|-----3---3-----3---3-------3-----|b
3|---0---0-----0---0-------0-----0-|g      3 VECES
4|-2---------0-----------0-----0---|D 
5|---------------------------------|A
6|---------------------2-----------|E

RIFF
En esta tierra he visto mi primera luz he visto y
veo luz tierra firme y basto cielo

RIFF
Todo mi entorno está entendido en el amor que nos tuvieron 
los que fueron hace tiempo

RIFF
Y hoy hace un buen día para hablar de los que están aquí trazando a 
                                         G Y LIGADO A G4
diario el bienestar de todo aquel que vendrá

RIFF
Como precederá la aurora al sol de diario, como 
                          G Y LIGADO A G4
Sabemos que mañana será igual

1|--------------------------------------------------------------|e
2|--------3-----------3-----------3-----------3-----------3-----|b
3|-----0------O-----0-----0-----2-----2-----2-----2-----0-----0-|g
4|---0------O-----0-----0-----0-----0-----0-----0-----2-----2---|D
5|--------------------------------------------------------------|A
6|-3------------3-----------2-----------2-----------0-----------|E
  por que así se ha venido haciendo con los años que transcurren

1|-----------------------------------------------------------|e
2|-----------------3-----------3-----------3-----------3-----|b
3|---0---0---0---0-----0-----0-----0-----0-----0-----0-----0-|g
4|-2-----------0-----0-----0-----0-----0-----0-----2-----2---|D
5|-----------------------------------------------------------|A
6|-----2---3-------------2-----------2-----------0-----------|E
   y se van

1|---------------------------------|e
2|-----3---3-----3---3-------3-----|b
3|---0---0-----0---0-------0-----0-|g
4|-2---------0-----------0-----0---|D
5|---------------------------------|A
6|---------------------2-----------|E

RIFF
En esta  tierra  en  donde  puedo  caminar  bajo  la  dirección 
le pong a mis pasos

RIFF
Siempre habrá tiempo para venirle a cantar por ser lo
más que se ofrecer como regalo

RIFF
Me dio un lugar donde al volver con gusto se decir es mi país
                                        G Y LIGADO A G4
esta es mi tierra y casa y esta es su canción

D/F#                        Em/G
una canción como todas las que se han hecho

          C

            
            
Suggest correction
Creating personal tab
Creating personal tab
You can edit any tab online and save it as your Personal.

You can edit, replace or remove any tab part or add personal notes – all changes will be seen only by you.

Personal tabs can be accessed anytime from any device, even offline.
Learn more »
Give kudos to tab author, rate the tab!
1 2 3 4 5
comments
print report bad tab
guest
Wanna post a correction for this tab? Suggest correction