Oops, an error
Loading. Please wait.

Hoy Hace Un Buen Día tab

version 4
version 4

Whole song

Interactive

25 views 1 this week
no commentswrite comment
1 2 3 4 5
2 more votes to show rating
add to favorites
×
Save as Personal and add changes to this tab that will be seen only by you. Learn more ›
×
You can save this tab as Personal to edit and correct it or add notes. All changes will be seen only by you. Learn more »
launch autoscroll
font size
0
reset
how to read this tab
guitar tuner
edit
Autoscroll
slow
fast
+/-
esc
set tempo
stop
   esta rola esta fascilona nadamas tienen que tomar bien el ritmo de los arpegeos y utilizar
los dedos correctos y les sale


  G5 (no3)
E||--------------------------------------|
B||-----------3-----------------3--------|
G||--------0--------0--------0--------0--|
D||-----0--------0--------0--------0-----|
A||--------------------------------------|
E||--3-----------------3-----------------|


  D/F#                                   Cadd9/E
--------------------------------------|--------------------------------------|
-----------3-----------------3--------|-----------3-----------------3--------|
--------2--------2--------2--------2--|--------0--------0--------0--------0--|
-----0--------0--------0--------0-----|-----2--------2-----2--2--------2-----|
--------------------------------------|--------------------------------------|
--2-----------------2-----------------|--0-----------------------------------|


  Cadd9/C           D/F#                 G5 (no3)
--------------------------------------|--------------------------------------|
-----------3-----------------3--------|-----------3-----------------3--------|
--------0--------0--------2--------2--|--------0--------0--------0--------0--|
-----2--------2--------0--------0-----|-----0--------0--------0--------0-----|
--3-----------------------------------|--------------------------------------|
--------------------2-----------------|--3-----------------3-----------------|


  D/F#                                   Em7
--------------------------------------|--------------------------------------|
-----------3-----------------3--------|-----------3-----------------3--------|
--------2--------2--------2--------2--|--------0--------0--------0--------0--|
-----0--------0--------0--------0-----|-----2--------2--------2--------2-----|
--------------------------------------|--------------------------------------|
--2-----------------2-----------------|--0-----------------0-----------------|


  Cadd9             D/F#                 G5 (no3)
--------------------------------------|--------------------------------------|
-----------3-----------------3--------|-----------3-----------------3--------|
--------0--------0--------2--------2--|--------0--------0--------0--------0--|
-----2--------2--------0--------0-----|-----0--------0--------0--------0-----|
--3-----------------------------------|--------------------------------------|
--------------------2-----------------|--3-----------------3-----------------|


  D/F#                                   Em7
--------------------------------------|--------------------------------------|
-----------3-----------------3--------|-----------3-----------------3--------|
--------2--------2--------2--------2--|--------0--------0--------0--------0--|
-----0--------0--------0--------0-----|-----2--------2--------2--------2-----|
--------------------------------------|--------------------------------------|
--2-----------------2-----------------|--0-----------------0-----------------|


  Cadd9/C           D/F#                 G5 (no3)
--------------------------------------|--------------------------------------|
-----------3-----------------3--------|-----------3-----------------3--------|
--------0--------0--------2--------2--|--------0--------0--------0--------0--|
-----2--------2--------0--------0-----|-----0--------0--------0--------0-----|
--3-----------------------------------|--------------------------------------|
--------------------2-----------------|--3-----------------3-----------------|


  D/F#                                   Cadd9/E
--------------------------------------|--------------------------------------|
-----------3-----------------3--------|-----------3-----------------3--------|
--------2--------2--------2--------2--|--------0--------0--------0--------0--|
-----0--------0--------0--------0-----|-----2--------2--------2--------2-----|
--------------------------------------|--------------------------------------|
--2-----------------2-----------------|--0-----------------0-----------------|


  Cadd9/C           D/F#                 G5 (no3)
--------------------------------------|--------------------------------------|
-----------3-----------------3--------|-----------3-----------------3--------|
--------0--------0--------2--------2--|--------0--------0--------0--------0--|
-----2--------2--------0--------0-----|-----0--------0--------0--------0-----|
--3-----------------------------------|--------------------------------------|
--------------------2-----------------|--3-----------------3-----------------|


  D/F#                                   Cadd9/E
--------------------------------------|--------------------------------------|
-----------3-----------------3--------|-----------3-----------------3--------|
--------2--------2--------2--------2--|--------0--------0--------0--------0--|
-----0--------0--------0--------0-----|-----2--------2--------2--------2-----|
--------------------------------------|--------------------------------------|
--2-----------------2-----------------|--0-----------------0-----------------|


  Cadd9/C           D/F#                 G5 (no 3)
--------------------------------------|---------3--3-3---3------3------|
-----------3-----------------3--------|--0------3--3-3---0------3------|
--------0--------0--------2--------2--|--0------0--0-0---0------0------|
-----2--------2--------0--------0-----|--0-----------------------------|
--3-----------------------------------|--------------------------------|
--------------------2-----------------|--3---------------3-------------|


  D/F#
--------------------------------------|--------------------------------------|
-----------3-----------------3--------|-----------3-----------------3--------|
--------2--------2--------2--------2--|--------0--------0--------0--------0--|
-----0--------0--------0--------0-----|-----2--------2-----2--2--------2-----|
--------------------------------------|--------------------------------------|
--2-----------------2-----------------|--0-----------------------------------|


                                         G5 (no 3)
--------------------------------------|---------3--3-3---3------3------|
-----------3-----------------3--------|---------3--3-3---0------3------|
--------0--------0--------2--------2--|---------0--0-0---0------0------|
-----2--------2--------0--------0-----|--------------------------------|
--3-----------------------------------|--------------------------------|
--------------------2-----------------|--3---------------3-------------|


  D/F#                                   Cadd9/E           C        D/F#
--------------------------------------|--------------------------------------|
-----------3-----------------3--------|-----------3--------------------------|
--------2--------2--------2--------2--|--------0--------0--------0--------2--|
-----0--------0--------0--------0-----|-----2--------2--------2--------0-----|
--------------------------------------|--------------------3-----------------|
--2-----------------2-----------------|--0--------------------------2--------|


  G5                                   D/F#
------------------------------------|--------------------------------------|
---------------------------3h-1h-0--|-----------3-----------------3--------|
------------------0h-2h-0-----------|--------2--------2--------2--------2--|
---------0h-2h-0--------------------|-----0--------0--------0--------0-----|
------------------------------------|--------------------------------------|
--3---------------------------------|--2-----------------2-----------------|


  Cadd9/E                                Cadd9/C           D/F#
--------------------------------------|--------------------------------------|
-----------3-----------------3--------|-----------3-----------------3--------|
--------0--------0--------0--------0--|--------0--------0--------2--------2--|
-----2--------2-----2--2--------2-----|-----2--------2--------0--------0-----|
--------------------------------------|--3-----------------------------------|
--0-----------------------------------|--------------------2-----------------|


  G5 (no3)                               D/F#
--------------------------------------|--------------------------------------|
-----------3-----------------3--------|-----------3-----------------3--------|
--------0--------0--------0--------0--|--------2--------2--------2--------2--|
-----0--------0--------0--------0-----|-----0--------0--------0--------0-----|
--------------------------------------|--------------------------------------|
--3-----------------3-----------------|--2-----------------2-----------------|


  Cadd9/E                                Cadd9/C           D/F#
--------------------------------------|--------------------------------------|
-----------3-----------------3--------|-----------3-----------------3--------|
--------0--------0--------0--------0--|--------0--------0--------2--------2--|
-----2--------2-----2--2--------2-----|-----2--------2--------0--------0-----|
--------------------------------------|--3-----------------------------------|
--0-----------------------------------|--------------------2-----------------|


  G5 (no3)                               D/F#
--------------------------------------|--------------------------------------|
-----------3-----------------3--------|-----------3-----------------3--------|
--------0--------0--------0--------0--|--------2--------2--------2--------2--|
-----0--------0--------0--------0-----|-----0--------0--------0--------0-----|
--------------------------------------|--------------------------------------|
--3-----------------3-----------------|--2-----------------2-----------------|


  Cadd9/E                                Cadd9/C           D/F#
--------------------------------------|--------------------------------------|
-----------3-----------------3--------|-----------3-----------------3--------|
--------0--------0--------0--------0--|--------0--------0--------2--------2--|
-----2--------2-----2--2--------2-----|-----2--------2--------0--------0-----|
--------------------------------------|--3-----------------------------------|
--0-----------------------------------|--------------------2-----------------|


  G5 (no3)                               D/F#
--------------------------------------|--------------------------------------|
-----------3-----------------3--------|-----------3-----------------3--------|
--------0--------0--------0--------0--|--------2--------2--------2--------2--|
-----0--------0--------0--------0-----|-----0--------0--------0--------0-----|
--------------------------------------|--------------------------------------|
--3-----------------3-----------------|--2-----------------2-----------------|


  Cadd9/E                                Cadd9/C           D/F#
--------------------------------------|--------------------------------------|
-----------3-----------------3--------|-----------3-----------------3--------|
--------0--------0--------0--------0--|--------0--------0--------2--------2--|
-----2--------2-----2--2--------2-----|-----2--------2--------0--------0-----|
--------------------------------------|--3-----------------------------------|
--0-----------------------------------|--------------------2-----------------|


  G5 (no 3)                      Dsus4/F#
---------------3--3------3----|-----------3--3--3-----------3--3--3--|
------------0--3--0------3----|-----------3--3--3-----------3--3--3--|
---------0--0-----0------0----|--------2--2--2--2--------2--2--2--2--|
---------0--------0-----------|-----0-----0--0--0-----0-----0--0--0--|
------------------2-----------|--------------------------------------|
--3---------------3-----------|--2-----------------2-----------------|


  C/E                                Cadd9           Dsus4/F#
--------------3--3--3------3------|-----------3---------------3------|
-----------1--1--1--1------1------|-----------3---------------3------|
--------0-----0--0--0------0------|--------0--0------------2--2------|
-----2--------2--2--2------2------|-----2-----2---------0-----0------|
----------------------------------|--3-------------------------------|
--0-------------------------------|------------------2---------------|


  G5 (no 3)                        Dsus4/F#
----------------3--3------------|---------------------------3------|
-------------3--3--3------3-3---|------------------------3--3------|
-----0----0--0-----0------0-0---|-----2----2----2-----2--2--2------|
----------0---------------------|------------------0--0--0--0------|
--------------------------------|----------------------------------|
--3----------------3------------|--2-------------------------------|


  Em7           Cadd9            G5 (no 3)
--3------3------3------3------|----------------3--3------------|
--3------3------3------3------|--3----------0--3--0------3-3---|
--0------0------0------0------|--0--0----0--0-----0------0-0---|
--2------2------2------2------|--0-------0---------------------|
--2-------------3-------------|--2-----------------------------|
--0-------------0-------------|--3----------------3------------|


  Dsus4/F#                             C               C/B
-----------3---------------3--3--3--|---------3--3--3---------3--3--3--|
-----------3------------3--3--3--3--|---------1--1--1---------1--1--1--|
--------2--2---------2-----2--2--2--|---------0--0--0---------0--0--0--|
-----0-----0------0-----------------|---------2--2--2---------2--2--2--|
------------------------------------|--3---------------2---------------|
--2---------------------------------|----------------------------------|


  C/A             D7sus4       G5 (no 3)
---------3--3--3--3----3----|---------------3------3-3---|
---------1--1--1--1----1----|---------------0------3-3---|
---------0--0--0--2----2----|---------------0------0-0---|
---------2--2--2--0----0----|---------------0------0-0---|
--0-------------------------|---------------2------------|
----------------------------|--3------------3------------|


  Dsus4/F#                     Em7/E
---------------3------3-3---|---------------3------3------|
---------------3------3-3---|---------------3------3------|
---------------2------2-2---|---------------0------0------|
---------------0------0-0---|---------------2------2------|
----------------------------|---------------2------2------|
--2-------------------------|--0--------------------------|


  C               Dsus4/F#           G5 (no 3)
-----------3---------------3------|---------------3------3-3---|
-----------1---------------3------|---------------3------3-3---|
--------0--0------------2--2------|---------------0------0-0---|
-----2-----2---------0-----0------|---------------0------0-0---|
--3-------------------------------|---------------2------------|
------------------2---------------|--3------------3------------|


  Dsus4/F#                     Em7/E
---------------3------3-3---|---------------3------3------|
---------------3------3-3---|---------------3------3------|
---------------2------2-2---|---------------0------0------|
---------------0------0-0---|---------------2------2------|
----------------------------|---------------2------2------|
--2-------------------------|--0--------------------------|


  C                 D7sus4           Em7/E
--------------3-----3------3------|--3------------3--3------3----|
-----------1-----1--1------1------|--3---------0--3--3------3----|
--------0--------0--2------2------|--0------0--0-----0------0----|
-----2--------------0-------------|--2------2--------------------|
--3-------------------------------|--2---------------------------|
----------------------------------|--0---------------0-----------|


  Am7                            Cadd9
--3------------3--3------3----|--3--------------3--3------3----|
--1---------1--1--1------1----|--3-----------3--3--3------3----|
--2------2--2-----2------2----|--0--0-----0--0-----0------0----|
--2------2--------2-----------|--2-----2--2--------2-----------|
--0---------------0-----------|--3-----------------3-----------|
------------------------------|--------------------------------|


  D7sus4
--3------------3--3------3----|-----------3-----------------3--------|
--1---------1--1--1------1----|--------3--------3--------3--------3--|
--2------2--2-----2------2----|-----0--------0--------0--------0-----|
--0------0--------0------0----|--------------------------------------|
------------------------------|--------------------------------------|
------------------------------|--3-----------------3-----------------|


-----------3-----------------3--------|-----------3-----------------3--------|
--------3--------3--------3--------3--|--------3--------3--------3--------3--|
-----0--------0--------0--------0-----|-----0--------0--------0--------0-----|
--------------------------------------|--------------------------------------|
--------------------------------------|--------------------------------------|
--3-----------------3-----------------|--3-----------------3-----------------|


-----------3-----------------3--------|-----------3-----------------3--------|
--------3--------3--------3--------3--|--------3--------3--------3--------3--|
-----2--------2--------2--------2-----|-----0--------0--------0--------0-----|
--------------------0-----------------|--------------------2-----------------|
--------------------------------------|--------------------------------------|
--2-----------------------------------|--0-----------------------------------|


-----------3-----------------3--------|-----------3-----------------3--------|
--------3--------3--------3--------3--|--------3--------3--------3--------3--|
-----0--------0--------2--------2-----|-----0--------0--------0--------0-----|
--------------------------------------|--------------------0-----------------|
--3-----------------------------------|--------------------------------------|
--------------------2-----------------|--3-----------------------------------|


-----------3-----------------3--------|-----------3-----------------3--------|
--------3--------3--------3--------3--|--------3--------3--------3--------3--|
-----2--------2--------2--------2-----|-----0--------0--------0--------0-----|
--------------------0-----------------|--------------------2--------0--------|
--------------------------------------|--3-----------------------------------|
--2-----------------------------------|--------------------------------------|


-----------3-----------------3--------|--------------------------------------|
--------3--------3--------3--------3--|-----------3-----------------3--------|
-----0--------0--------2--------2-----|--------0--------0--------0--------0--|
-----------2--------0-----------------|-----0--------0--------0--------0-----|
--3-----------------------------------|--------------------------------------|
-----------------------------2--------|--3-----------------3-----------------|


--------------------------------------|-----------3-----------------3--------|
-----------3-----------------3--------|--------3--------3--------3--------3--|
--------2--------2--------2--------2--|-----0--------0--------0--------0-----|
-----0--------0--------0--------0-----|--------------------2--------0--------|
--------------------------------------|--3-----------------------------------|
--2-----------------2-----------------|--------------------------------------|


-----------3-----------------3--------|---------------3--3------3----|
--------3--------3--------3--------3--|------------0--3--0------3----|
-----0--------0--------2--------2-----|---------0--0-----0------0----|
-----------2--------0-----------------|---------0--------0-----------|
--3-----------------------------------|------------------2-----------|
-----------------------------2--------|--3---------------3-----------|


-----------------3--3------3------|--------------3--3--3------3------|
--------------3--3--3------3------|-----------1--1--1--1------1------|
--------2--2--2-----2------2------|--------0-----0--0--0------0------|
-----0-----0--------0------0------|-----2--------2--2--2------2------|
----------------------------------|----------------------------------|
--2-------------------------------|--0-------------------------------|


--3------3------3------3------|----------------3--3--3--3--3-3---|
--1------1------3------3------|-------------0--3--0--0--0--3-3---|
--0------0------0------0------|-----0----0--0-----0--0--0--0-0---|
--2------2------0-------------|----------0-----------------------|
--3---------------------------|----------------------------------|
------------------------------|--3----------------3--------------|


--3------------3--3------3------|--------------3--3--3------3------|
--3---------3--3--3------3------|-----------1--1--1--1------1------|
--2------2--2-----2------2------|--------0-----0--0--0------0------|
--0------0--------0------0------|-----2--------2--2--2------2------|
--------------------------------|----------------------------------|
--2-----------------------------|--0-------------------------------|


--3------3------3------3------|----------------3--3------3----|
--1------1------3------3------|-------------0--3--0------3----|
--0------0------0------0------|-----0----0--0-----0------0----|
--2------2------0-------------|----------0--------0-----------|
--3---------------------------|-------------------2-----------|
------------------------------|--3----------------3-----------|


--------------------3------3------|---------3--3--3---------3--3--3--|
-----------3--------3------3------|---------1--1--1---------1--1--1--|
--------2-----2-----2------2------|---------0--0--0---------0--0--0--|
-----0-----------0--0-------------|---------2--2--2---------2--2--2--|
----------------------------------|--3---------------2---------------|
--2-----------------2-------------|----------------------------------|


---------3--3--3--3----3----|-----------------3--3------3--3--3--|
---------1--1--1--1----1----|--------------0--3--0------3--3--3--|
---------0--0--0--2----2----|-----0--0--0--0-----0------0--0--0--|
---------2--2--2--0----0----|-----------0--------0---------------|
--0-------------------------|--------------------2---------------|
----------------------------|--3-----------------3---------------|


-----------------3--3------3--3--3--|--------------3--3--3------3------|
--------------3--3--3------3--3--3--|-----------1--1--1--1------1------|
-----2--2--2--2-----2------2--2--2--|--------0-----0--0--0------0------|
-----------0--------0------0--0--0--|-----2--------2--2--2------2------|
------------------------------------|----------------------------------|
--2---------------------------------|--0-------------------------------|


--3------3------3------3------|-----------------3--3------3----|
--1------1------3------3------|--------------0--3--3------3----|
--0------0------0------0------|-----0--0--0--0-----0------0----|
--2------2------0-------------|-----------0--------0------0----|
--3---------------------------|--------------------2-----------|
------------------------------|--3-----------------3-----------|


--3------3------3------3------|--3--------------3--3------3----|
--3------3------3------3------|--3-----------0--3--3------3----|
--2------2------2------2------|--0-----0--0--0-----0------0----|
--0------0------0------0------|--2--2-----2--------------------|
------------------------------|--2-----------------------------|
--2---------------------------|--0-----------------0-----------|


--3-------------3--3------3----|--3-------------3--3------3----|
--1----------1--1--1------1----|--3----------0--3--3------3----|
--0--0----0--0-----0------0----|--0--0----0--0-----0------0----|
--2-------2--------2-----------|--2-------2--------------------|
--3----------------------------|--2----------------------------|
-------------------------------|--0----------------0-----------|


--3-------------3--3------3----|-----------3--3--3-----------3--3--3--|
--1----------1--1--1------1----|-----------1--1--1-----------1--1--1--|
--2--0----2--2-----2------2----|--------0--0--0--0--------0--0--0--0--|
--2-------2--------2------2----|-----2-----2--2--2-----2-----2--2--2--|
--0----------------------------|--3-----------------2-----------------|
-------------------------------|--------------------------------------|


-----------3--3--3--3----3----|--3-------------3--3------3----|
-----------1--1--1--1----1----|--3----------0--3--3------3----|
--------0--0--0--0--2----2----|--0--0----0--0-----0------0----|
-----2-----2--2--2--0----0----|--2-------2--------------------|
--0---------------------------|--2----------------------------|
------------------------------|--0----------------0-----------|


--3------------3--3------3----|--3-------------3--3------3----|
--1---------1--1--1------1----|--3----------3--3--3------3----|
--2------2--2-----2------2----|--0-------0--0-----0------0----|
--2------2--------2-----------|--2----2--2--------2-----------|
--0---------------0-----------|--3----------------3-----------|
------------------------------|-------------------------------|


--3--3--3--3--3--3--3------3----|--3------3------3--------|------------------||
--1--1--1--1--1--1--1------1----|--1------1------3--------|------------------||
--2--2--2--2--2--2--2------2----|--2------2------4--------|------------------||
--0--0-----0--0--0--0------0----|--0------0------5--------|------------------||
--------------------------------|----------------5--------|------------------||
--3-----------------------------|----------------3--------|------------------||


saludos a la raza de chihuahua en especial a la gente de el instituto america
 posdata el aron es puto

suerte con la rola

            
            
Suggest correction
Creating personal tab
Creating personal tab
You can edit any tab online and save it as your Personal.

You can edit, replace or remove any tab part or add personal notes – all changes will be seen only by you.

Personal tabs can be accessed anytime from any device, even offline.
Learn more »
Give kudos to tab author, rate the tab!
1 2 3 4 5
comments
print report bad tab
guest
Wanna post a correction for this tab? Suggest correction