Oops, an error
Loading. Please wait.

Jonás, El Enterado tab

version 1
version 1

Whole song

10 views 1 this week
no commentswrite comment
1 2 3 4 5
3 more votes to show rating
add to favorites
×
Save as Personal and add changes to this tab that will be seen only by you. Learn more ›
×
You can save this tab as Personal to edit and correct it or add notes. All changes will be seen only by you. Learn more »
launch autoscroll
font size
0
reset
how to read this tab
guitar tuner
edit
Autoscroll
slow
fast
+/-
esc
set tempo
stop
Hola amigos, acá les dejo este tab, espero pasen horas y
horas de diversión, recuerden: esta NO es la tablatura súper precisa,
solo es una guía para que no anden por ahí estrellando su humanidad
contra las paredes cual borracho.
Yo con todo el gusto la saco, pero el escribirla
en el block de notas esta medio "time consuming" por eso
mejor también grabé un video: 
para que ven como la toco (o como me equivoco ¬¬)
por si algo no les cuadra.
Si ayudados por esta, la graban y suben en yutu,
no sean delincuentes y agradezcan al autor de la tablatura.
Si tiene algún comentario, corrección, o petición no duden en escribirme.
Para tocarla en el tono original recuerden capo en el segundo traste,
y si no tienen capo, compren uno, no sean tacaños, hasta la próxima.


(Introducción)
     C             Bb           F       C6/G
e|------0-----------------------------------------
B|-----1---1--------3-3----3---1-1---1-----1p0-0--
G|----0------0-----3----3-3----2-2--2-----0---2-0-
D|-----------------------3---------3--------------
A|--3-------------1-------------------------------
E|-----------------------------1---------3--------

   C          Bb           F    C6/G    C
e|----0----0-------------------------------|
B|-1h3--1h3---3p1---3p1----1-1-----0h1--1--|
G|------------3--3--3--3---2------0-----0--|
D|-----------------------3-------0--h2--2--|
A|-3----3-----1-----1-------------------3--|
E|-------------------------1----3----------|

(Poema)
C              Bb
Traía polvo del camino,
       F        C6/G
un bastón y un sucio gorro,
    C      G/B     Am
el atuendo del viajero
Am/G    F     C6/G       C
y el aire del viejo zorro.

     C             Bb           F        C6/G
e|------0----------------------------------------------
B|-----1---1--------3-3----3---1-1---1-----1p0-0-------
G|----0------0-----3----3-3----2-2--2-----0---2-0------
D|-----------------------3---------3-------------------
A|--3-------------1------------------------------------
E|-----------------------------1---------3-------------
Yo le ví, le vi una tarde en el bosque antiguo y verde

     C         G/B       Am    Am/G     F       C6/G   C
se volvió un momento al tiempo que entonaba un aire alegre


C      G/C     Am      Am/G
Pro pom pom pom pom po po po... (Bueno, el chiste es que es un tarareo)
F     C6/G      C
Pro pom pom pom pom.
C      G/C     Am      Am/G
Pro pom pom pom pom po po po...
F     C6/G      C
Pro pom pom pom pom.


e|---------------------------------------------------------------
B|---5-----6p5--------------1-----1-----1--------1------1-----1--
G|-----5-7-----7-5-7---0--3---3-2---2-0---0--0h2------2-----0----
D|-----5-5---------5--------------------------------3-----2------
A|---7-----------------------------------------------------------
E|------------------------------------3------3-------------------

e|------------0-------0------------------------------------------
B|------1--1~------1-----1--------1------1-----1-----1-----1-----
G|----0----0~--0h2----0--------0--0----2-----0-----0-----0-------
D|--0----------------------0h2----2--3-----2-----0-----2---------
A|---------3~---------3-----------3------------------------------
E|---------------------------------------------------------------

e|---------------------------------------------------------------
B|------1-----1------1-------------------------------------------
G|----2-----0------0---------------------------------------------
D|--3-----2------0-----------------------------------------------
A|---------------------------------------------------------------
E|---------------------------------------------------------------

(Versos)

e|---------------------------------------------------------------
B|------1-----1-----1------1-------1-----1------1-----1------1---
G|----0-----0-----0------0-------0-----0------0-----0------0-----
D|--------3-----2------0-------------3------2-----0--------------
A|--3--------------------------3-------------------------3-------
E|---------------------------------------------------------------
   Jonas no era sino un joven, que la pasaba averiguando,

    C6/G  Am     Am/G    F      G      C       C(rasgueo)
e|---------------------------------------------0--0--0--0--------
B|------3-----1-------1------1------0-------1--1--1--1--1--------
G|----0-----2-------2------2------0-------0----0--0--0--0--------
D|---------------------------------------------2--2--2--2--------
A|--2-----0----------------------------3-------3--3--3--3--------
E|---------------3-------1------3--------------------------------
    como así había sido siempre, no le hicieron mucho caso

    C                          C
e|---------------------------------------------------------------
B|------1-----1-----1------1-------1-----1------1-----1------1---
G|----0-----0-----0------0-------0-----0------0-----0------0-----
D|--------3-----2------0-------------3------2-----0--------------
A|--3--------------------------3-------------------------3-------
E|---------------------------------------------------------------
    y sabiendo del mundo poco, poco como el que no es sabio

   C6/G  Am     Am/G    F      G      C       C(Rasgueo)
e|---------------------------------------------0--0--0--0--------
B|------3-----1-------1------1------0-------1--1--1--1--1--------
G|----0-----2-------2------2------0-------0----0--0--0--0--------
D|---------------------------------------------2--2--2--2--------
A|--2-----0----------------------------3-------3--3--3--3--------
E|---------------3-------1------3--------------------------------
poco y tan poco que un día, decidió que iba a hacer algo.

 C             Bb
Me ando despidiendo pues
       F           G
me marcho a las montañas, dijo
C    C6/G    Am Am/G    F    G
para mi regreso ya tendré largas las
                                                             (C rasgueao)
e|------------------------------------------------------------0---
B|----1-----1-----1--------1-----1-----1------1-----3------1--1---
G|--3---3-2---2-0---0----2-----0-----0------0-----0------0----0---
D|---------------------3-----2-----0--------------------------2---
A|-----------------------------------------------2-----3------3---
E|----------------------------------------3-----------------------
   barbas quien le oyó se dijo entonces, Jonás siempre ha sido un necio

C               F   G      Am      F     G      C
y a fe mia que su partida está mejor que su regreso.

(Inter solo guitarra)
      C       Bb     F    G    C        Bb F    G   C   C(rasgueado)
e|--0------0-------------------------0------------------0--------
B|-----1h3----3p1-------1s3------1h3----3--1----3---1---1--------
G|---0------------3--2--2s4---0---------3--2----4---0---0--------
D|----------------3--3--3s5----------------3----5-------2--------
A|-----3------1-----------------3-------1-----------3---3--------
E|-------------------1----3----------------1----3----------------

(Verso)

e|------------------------------------------0--------------------
B|-----1-----1------1-----1-----1-----1----1-1p0-0---------------
G|----0--0--0------2--2--2-----0--0--0----0-----2-0--------------
D|---------2------------3-----------2----------------------------
A|--3-------------------------3----------------------------------
E|---------------1-----------------------3-----------------------
    Poco le importaban que rieran cuando se fue

e|---------------------------------------------------------------
B|---1----3----1----1----1----1----1-----------------------------
G|---0----0----2----2----2----0----0-----------------------------
D|---------------------------------------------------------------
A|---3----2----0-------------------3-----------------------------
E|------------------3----1----3----------------------------------
   ya conocía la risa del que no puede entender.

e|---------------------------------------------------------------
B|------1-----1------1------1------1-----1------1----------------
G|----2-----0------0------0------2-----0------0------------------
D|--3-----2------0------2------3-----2------0--------------------
A|---------------------------------------------------------------
E|---------------------------------------------------------------

(Verso)

e|---------------------------------------------------------------
B|------1-----1-----1------1-------1-----1------1-----1------1---
G|----0-----0-----0------0-------0-----0------0-----0------0-----
D|--------3-----2------0-------------3------2-----0--------------
A|--3--------------------------3-------------------------3-------
E|---------------------------------------------------------------
Y se fue por los caminos, ágil errabundo y solo

   C6/G  Am     Am/G    F      G      C       C(Rasgueo)
e|---------------------------------------------0--0--0--0--------
B|------3-----1-------1------1------0-------1--1--1--1--1--------
G|----0-----2-------2------2------0-------0----0--0--0--0--------
D|---------------------------------------------2--2--2--2--------
A|--2-----0----------------------------3-------3--3--3--3--------
E|---------------3-------1------3--------------------------------
iba dando briosos saltos y cantando alegres tonos.

e|---------------------------------------------------------------
B|------1-----1-----1------1-------1-----1------1-----1------1---
G|----0-----0-----0------0-------0-----0------0-----0------0-----
D|--------3-----2------0-------------3------2-----0--------------
A|--3--------------------------3-------------------------3-------
E|---------------------------------------------------------------
en busca del viejo sabio, que lo contestaba todo

   C6/G  Am     Am/G    F      G      C       C(Rasgueo)
e|---------------------------------------------0--0--0--0--------
B|------3-----1-------1------1------0-------1--1--1--1--1--------
G|----0-----2-------2------2------0-------0----0--0--0--0--------
D|---------------------------------------------2--2--2--2--------
A|--2-----0----------------------------3-------3--3--3--3--------
E|---------------3-------1------3--------------------------------
con harapos de 100 años y un cascabel en el gorro.

C                 Gm11
Le pasaron muchas cosas,
Bb             Fsus4
porque muchas cosas pasan,
G#sus4           D#sus2/A#
a lo largo de los años,
Bbsus4              G
que se mora en las montañas,

 C                   Gm11
No encontró a nadie más sabio
Bb                 Fsus4
que el corazón que llevaba
G#sus4              D#sus2/A#
que le respondió sonriente
Bbsus4            G
a todo lo que preguntaba.
     C    C6/G   Am
Y un buen dia le vieron
Am/G   F       G
regresar de algún lugar.

e|-----------0---
B|---1p0-0-0-----
G|--0---2--0-----
D|---------------
A|---------------
E|--3------3-----

(Coro)

     C             Bb           F        C6/G
e|------0----------------------------------------------
B|-----1---1--------3-3----3---1-1---1-----1p0-0-------
G|----0------0-----3----3-3----2-2--2-----0---2-0------
D|-----------------------3---------3-------------------
A|--3-------------1------------------------------------
E|-----------------------------1---------3-------------
    No pares de andar, repasa el mundo con tu pie,

C     G/B    Am    Am/G  F       C6/G   C
caminarán los hombres y comprenderán después.

e|---------------------------------------------------------------
B|------1-----1------1------1------1-----1------1----------------
G|----2-----0------0------0------2-----0------0------------------
D|--3-----2------0------2------3-----2------0--------------------
A|---------------------------------------------------------------
E|---------------------------------------------------------------

(Verso)
e|---------------------------------------------------------------
B|------1-----1-----1------1-------1-----1------1-----1------1---
G|----0-----0-----0------0-------0-----0------0-----0------0-----
D|--------3-----2------0-------------3------2-----0--------------
A|--3--------------------------3-------------------------3-------
E|---------------------------------------------------------------
    Volvió y no fue un día de fiesta, la gente miró callada

   C6/G  Am     Am/G    F      G      C       C(Rasgueo)
e|---------------------------------------------0--0--0--0--------
B|------3-----1-------1------1------0-------1--1--1--1--1--------
G|----0-----2-------2------2------0-------0----0--0--0--0--------
D|---------------------------------------------2--2--2--2--------
A|--2-----0----------------------------3-------3--3--3--3--------
E|---------------3-------1------3--------------------------------
    pues las barbas y la risa le cubrian toda la cara,

e|---------------------------------------------------------------
B|------1-----1-----1------1-------1-----1------1-----1------1---
G|----0-----0-----0------0-------0-----0------0-----0------0-----
D|--------3-----2------0-------------3------2-----0--------------
A|--3--------------------------3-------------------------3-------
E|---------------------------------------------------------------
   traía un cascabel su gorra, desteñida y remendada

  C6/G  Am     Am/G    F      G      C       C(Rasgueo)
e|---------------------------------------------0--0--0--0--------
B|------3-----1-------1------1------0-------1--1--1--1--1--------
G|----0-----2-------2------2------0-------0----0--0--0--0--------
D|---------------------------------------------2--2--2--2--------
A|--2-----0----------------------------3-------3--3--3--3--------
E|---------------3-------1------3--------------------------------
    y unos harapos mugrosos y una sombra adelantada.

  C                  Bb
Que me cuelguen de una encina
F              G
si no veo las caras (dijo)
C    C6/G       Am     Am/G
de aquellos que preguntaron
     F         G
hace tiempo y aún se rascan,

e|------------------------------------------------------------0---
B|----1-----1-----1--------1-----1-----1------1-----3------1--1---
G|--3---3-2---2-0---0----2-----0-----0------0-----0------0----0---
D|---------------------3-----2-----0--------------------------2---
A|-----------------------------------------------2-----3------3---
E|----------------------------------------3-----------------------
    quien le oyó se dijo entonces éste si que no ha cambiado
C      F   G      Am               F     G      C
lo malo de que se haya ido es que se haya regresado.

(Inter solo guitarra)
      C       Bb     F    G    C        Bb F    G   C   C(rasgueado)
e|--0------0-------------------------0------------------0--------
B|-----1h3----3p1-------1s3------1h3----3--1----3---1---1--------
G|---0------------3--2--2s4---0---------3--2----4---0---0--------
D|----------------3--3--3s5----------------3----5-------2--------
A|-----3------1-----------------3-------1-----------3---3--------
E|-------------------1----3----------------1----3----------------

C              Gm11
Se quedó por algún tiempo
  Bb           Fsus4
hablando y organizando
  G#sus4      D#sus2/A#
festines y desafueros
  Bb            G
por la villa y los villanos
  C              Gm11
pero llegó a tal su juerga
 Bb         Fsus4
y festejar desenfrenado
  G#sus4       D#sus2/A#
que se celebró un concilio
 Bb          G
y sin más un día lo echaron.
C    G/B    Am     Am/G
Y se alejó con las hojas
F    C6/G    C
que colgaran de las ramas

e|----------------------------------------------------
B|------1------3-----1-------1------1------0-------1--
G|----0------0-----2-------2------2------0-------0----
D|----------------------------------------------------
A|--3------2-----0----------------------------3-------
E|----------------------3-------1------3--------------
  a intervalos regulares como pasos que se marchan,
C     G/B     Am     Am/G
la última vez que le vieron
  F     C6/G    C
no iba sólo, encabezaba
C    G/B    Am     Am/G
una cuadrilla de truhanes
  F     C6/G     C
que iba rumbo a las montañas.

(Coro)

     C             Bb           F        C6/G
e|------0----------------------------------------------
B|-----1---1--------3-3----3---1-1---1-----1p0-0-------
G|----0------0-----3----3-3----2-2--2-----0---2-0------
D|-----------------------3---------3-------------------
A|--3-------------1------------------------------------
E|-----------------------------1---------3-------------
    No pares de andar, repasa el mundo con tu pie,

C     G/B    Am    Am/G  F       C6/G   C     C
caminarán los hombres y comprenderán tal vez, más...
C    G/B       Am
recordarán los hombres
 Am/G   F   C6/G       C  G/B  Am  Am/G  F  C6/G   C
y se olvidarán...   despueeeeeeeeeeeeeeeeeeeeeeeeeeeeees.

e|------0-------0----------0---------0-------------------------
B|-----1-1----1--1--------1---2-----1--------------------------
G|----0----2h0----------0-----0----0---------------------------
D|------------------2h0-----------2----------------------------
A|---3------------------------3--3-----------------------------
E|-------------------------------------------------------------

           EADGBe
C          032010
Bb         112221
F          132211
C6/G       302010
G/B        02003*
Am         002210
Am/G       302210
G#sus4     466644
D#sus2/A#  668886
Fsus4      133311
Gm11       300031
Suggest correction
Creating personal tab
Creating personal tab
You can edit any tab online and save it as your Personal.

You can edit, replace or remove any tab part or add personal notes – all changes will be seen only by you.

Personal tabs can be accessed anytime from any device, even offline.
Learn more »
Give kudos to tab author, rate the tab!
1 2 3 4 5
comments
print report bad tab
guest
Wanna post a correction for this tab? Suggest correction