Oops, an error
Loading. Please wait.

La Bañera tab

version 1
version 1
20 views 1 this week
no commentswrite comment
1 2 3 4 5
3 more votes to show rating
add to favorites
×
Save as Personal and add changes to this tab that will be seen only by you. Learn more ›
×
You can save this tab as Personal to edit and correct it or add notes. All changes will be seen only by you. Learn more »
launch autoscroll
font size
0
reset
how to read this tab
guitar tuner
edit
Autoscroll
slow
fast
+/-
esc
set tempo
stop
Esta es la entrada de la canción La Bañera de Fernando Delgadillo
Si se la aprenden bien se darán cuenta que también constituye la
mayoria de la rola. Está armonizada en Sol o G ya que se la aprendan
para tocarla en el tono original (Feb 13) solo utilicen el capotrasto
en el segundo traste y listo.

 
E--3------------------------------------------------------2-------------|
A----------2---------------3--------------------------------------------|
D-------------------0----------------2---------0------------------------|
g-----0-------0---------------0---------0----------2----------2---------|
b------3-------3----------------3---------3----------3----------3-------|
e-------------------3---------------------------------------------------|

--3------------------------------------------------------2--------------|
----------2---------------3---------------------------------------------|
-------------------0----------------2---------0-------------------------|
-----0-------0---------------0---------0----------2----------2----------|
------3-------3----------------3---------3----------3----------3--------|
-------------------3----------------------------------------------------|

--3------------------2--------------1-----------0-----------------------|
------------------------------------------------------------------------|
----------------------------------------------------------2-------------|
------0---------0-------2------2-------2------2------2------------------|
---------3--------3-------3------3-------3------0------0----------------|
------------3---------------3--------------0----------------------------|

---------------------------------0h1h2----------------------------------|
--0---------------------------------------------------------------------|
-----2---------------------2--------------------------------------------|
--------0---------------0----0----------2----------------0--------------|
-----------0h1-----1h0--------------------1----1h0--1h0-----------------|
----------------0---------------------------2---------------------------|

--3----------------2---------1-------------0----------------------------|
------------------------------------------------------------------------|
---------0--------------------------------------------2-----------------|
-----0------0--------------------------2--------2-----------------------|
--2------------2------3---------3----------0-------0--------------------|
-------------------------3---------0------------------------------------|

---------------------------------0h1h2-----------0h1h2----0h1h2---------|
--0---------------------------------------------------------------------|
-----2---------------------2--------------------------------------------|
--------0---------------0----0----------2-------------------------------|
-----------0h1-----1h0--------------------1-----------------------------|
----------------0---------------------------2---------------------------|

[:                        Se Repite                     :]     

--3--------------------------------------------------0h1h2--------------|
------------0h1h2-------0h1h2h3-----------------------------------------|
--------------------------------------0h3-----0-------------------------|
-----0------------0-------------0---------------------------------------|
-------3------------3-------------3---------------3---------------------|
---------3--------------------------------3---3h2-----------------------|


Que se diviertan!
Saludox!
Suggest correction
Creating personal tab
Creating personal tab
You can edit any tab online and save it as your Personal.

You can edit, replace or remove any tab part or add personal notes – all changes will be seen only by you.

Personal tabs can be accessed anytime from any device, even offline.
Learn more »
Give kudos to tab author, rate the tab!
1 2 3 4 5
comments
print report bad tab
guest
Wanna post a correction for this tab? Suggest correction