Oops, an error
Loading. Please wait.

Noche Sin Luciérnagas tab

version 4
version 4

Whole song

67 views 1 this week
no commentswrite comment
1 2 3 4 5
3 more votes to show rating
add to favorites
×
Save as Personal and add changes to this tab that will be seen only by you. Learn more ›
×
You can save this tab as Personal to edit and correct it or add notes. All changes will be seen only by you. Learn more »
launch autoscroll
font size
0
reset
how to read this tab
guitar tuner
edit
Autoscroll
slow
fast
+/-
esc
set tempo
stop
Bueno esta es mi primera transcripción
espero que les guste. Lleva capo en el 2do traste

INTRO
                              E
e|-------------------|--------------------|---------------------0--|
B|-------0----0------|--------0-----0-----|-------0----0--------0--|
G|-------1h2----2p1- |--------1h2-----2p1-|-------1h2----2p1-------|
D|-----------------2-|-------------------2|-----------------2------|
A|----2--------------|----2---------------|----2-------------------|
E|-0-----------------|-0------------------|-0----------------------|

RIFF 1

e|-----------------|----------------|----------------|------------------|
B|------0---0------|-----0----0-----|------0--0------|------0-----0-----|
G|------1h2---2p1- |-----1h2---2p1--|------1----2p1--|------1h2----2p1--|
D|---------------2-|--------------2-|--------------2-|----------------2-|
A|----2------------|---2------------|----2-----------|----2-------------|
E|-0---------------|-0--------------|-0--------------|-0----------------|

       C#m                                B             A
1|-------4----4---4---------4--|-----------|---------------------|
2|-----5-5--5-5-5-5-------5-5--|------5-4--|------0h2---0-0-2-4--|
3|-----6----6---6---------6----|------4-4--|------2-----2-2-2-2--|
4|-----------------------------|-----------|---2-----------------|
5|--4------------------4-------|---2-------|-0-------------------|
6|-4------------------4--------|--2--------|---------------------|

             B                     A             B        C#m
1|------------------------|-------------|-------------|-------4----|
2|------5---5---4-4/5-5---|------0h2-0--|------5--4---|-----5-5----|
3|------4---4---4-4---4---|------2---2--|------4--4---|-----6------|
4|--------4---4--4--------|---2---------|---2---------|------------|
5|---2--------------------|-0-----------|--2----------|---4--------|
6|--2---------------------|-------------|-------------|--4---------|

                              A               B
1|---------4---|---------------------|--------------------|
2|-------7-7---|------0h2--0-0-2-4---|-----5--5--4--4/5-5-|
3|-------4-----|------2----2-2-2-2---|-----4--4--4--4---4-|
4|-------------|---2-----------------|-------4--4--4------|
5|----6--------|-0-------------------|--2-----------------|
6|--4----------|---------------------|-2------------------|

Riff 2

                     F#m7
e|--------------------------------------------------|
B|------5---5---------5---5-------5---5--4--4--4----|
G|------2---2---------2---2-------2---2--2--2--2----|
D|--------3-------------3-----------4---4-4---4-----|
A|---4------------4------------2--------------------|
E|-2-------------2------------2---------------------|

                                      A
1|-----------------------|------------------|-----------------------|
2|------4-4-------4--4---|----2---2--0-2-4--|------2---2-----2---2--|
3|------1-1-------1--1---|----2---2--2-2-2--|------5---5-----5---5--|
4|-------3----------3----|--3----3--3-------|--------4---------4----|
5|--2---------2----------|0-----------------|---3----------3--------|
6|-0---------0-----------|------------------|--2---------2----------|

           A
1|-------------------|
2|-----2h3-2-0-2-4---|
3|-----2---2-2-2-2---|
4|---2---------------|
5|--0----------------|
6|-------------------|


Riff 3
                                   E
e|-------------------|----------------|--------------------------------|
B|-------0----0------|------0---0-----|------0----0---------0--0----0--|
G|-------1h2----2p1- |------1h2---2p1-|------1h2----2p1-----1--1/4--4--|
D|-----------------2-|---------------2|----------------2---------------|
A|----2--------------|----2-----------|----2---------------------------|
E|-0-----------------|-0--------------|-0------------------0-2////4-4--|

Riiff 4
           A                    B
1|---------------------|--------------------|
2|------0h2--0-0-2-4---|-----5--5--4--4/5-5-|
3|------2----2-2-2-2---|-----4--4--4--4---4-|
4|---2-----------------|-------4--4--4------|
5|-0-------------------|--2-----------------|
6|---------------------|-2------------------|


1|---------4-----|---------4---|
2|-------7-7-----|-------7-7---|
3|-------4-------|-------4-----|
4|---------------|-------------|
5|----6----------|----6--------|
6|--4------------|--4----------|

Riff 5

1|---------------|------------|--------------------|--------------------|
2|------0h2--0---|-----5--4---|------0h2--0-0-2-4--|-----5--5--4--4/5-5-|
3|------2----2---|-----4--4---|------2----2-2-2-2--|-----4--4--4--4---4-|
4|---2-----------|------------|---2----------------|-------4--4--4------|
5|-0-------------|--2---------|-0------------------|--2-----------------|
6|---------------|-2----------|--------------------|-2------------------|


1|--------------|-----------------|--------4----|
2|------0h2-0---|------5--4-------|------5-5----|
3|------2---2---|------4--4-------|------6------|
4|---2----------|---2-------------|-------------|
5|-0------------|--2--------------|---4---------|
6|--------------|-----------------|--4----------|


1|---------4-----|---------------------|--------------------|
2|-------7-7-----|------0h2--0-0-2-4---|-----5--5--4--4/5-5-|
3|-------4-------|------2----2-2-2-2---|-----4--4--4--4--4--|
4|---------------|---2-----------------|-------4--4--4------|
5|----6----------|-0-------------------|--2-----------------|
6|--4------------|---------------------|-2------------------|

Puente

e|----------------------------------------------------|
B|------5---5---------5---5-------5---5--4--4/5--4----|
G|------2---2---------2---2-------2---2--2--2----2----|
D|--------3-------------3-----------4---4-4-----------|
A|---4------------4------------2----------------------|
E|-2-------------2------------2-----------------------|

1|--------------------------|--------------------|------------------|
2|------4-4-------4--4------|-------0h2-2--------|--------4---4-----|
3|------1-1-------1--1------|-------2---0--------|--------5---4-----|
4|-------3----------3-------|----2---------------|------------------|
5|--2---------2-------------|--0-----------------|-----2------------|
6|-0---------0--------------|--------------------|---2--------------|

|---------------------|--------------------|
|------0h2--0-0-2-4---|-----5--5--4--4/5-5-|
|------2----2-2-2-2---|-----4--4--4--4---4-|
|---2-----------------|-------4--4--4------|
|-0-------------------|--2-----------------|
|---------------------|-2------------------|


1|--------------|-----------------|--------4----|
2|------0h2-0---|------5--4-------|------5-5----|
3|------2---2---|------4--4-------|------6------|
4|---2----------|---2-------------|-------------|
5|-0------------|--2--------------|---4---------|
6|--------------|-----------------|--4----------|

1|---------4-----|---------------------|--------------------|
2|-------7-7-----|------0h2--0-0-2-4---|-----5--5--4--4/5-5-|
3|-------4-------|------2----2-2-2-2---|-----4--4--4--4--4--|
4|---------------|---2-----------------|-------4--4--4------|
5|----6----------|-0-------------------|--2-----------------|
6|--4------------|---------------------|-2------------------|

e|-----------------|-------------------|--------------------0---|
B|------0---0------|-------0-----0-----|------0----0--------0---|
G|------1h2---2p1- |-------1h2-----2p1-|------1h2----2p1--------|
D|---------------2-|------------------2|-----------------2------|
A|----2------------|----2--------------|----2-------------------|
E|-0---------------|-0-----------------|-0----------------------|


Outro

e|------4---4-4--4--4---|-----0-0--0--2--4-|
B|-----2----2-2--2----2-|-----0-0--0--0--0-|
G|----2-----------------|------------------|
D|---4---------4---4----|---2--------------|
A|--2---2---------------|-0----------------|
E|----------------------|------------------|

|-0--5p4--2-0---0-----0--0-2--0-|
|--------------4---2h4----------|
|-------------------------------|
|-------------------------------|
|-------------------------------|
|-------------------------------|

e|-5-4-2--0------|--------0-----|
B|---------------|-------0------|
G|---------------|------1-------|
D|---------------|----2---------|
A|---------------|--2-----------|
E|---------------|0-------------|
                      rasgueo


Intro

     Riff 1
Pues resulta que no puedo estar contigo
Más Diciembre  está llamando
Y ahora me dejo llevar
Pues resulta que me voy es por lo pronto
Porque aquí acaba  mi vuelo junto a ti
Porque no me verás más
Y porque resulta preciso
        intro
Que sigamos separados
             Riff 1
Despedirnos es aún tiempo
Y con nosotros un asunto indispensable
Como el que un día nos unió
Despedir es devolver la libertad,
Y es retomarme y caminar sin ir a tí
Y es volver a dibujarnos
Cuando no está la otra parte
                        intro
Que nos hiciera estrellar
      Riff  2
Si mi amor me dices si algo te pregunto
Pero tú no me amas ya de tiempo atrás
Lo callábamos pensando que el mundo seguía
                           Riif 3
Adelante porque nunca me decidiría a soltar
Riff 4
y vida
Que sé muy bien
Que puede que la vida
                        Riff 5
Nunca más destelle igual
Pero en tanto habita
El tiempo entre nosotros
Y estas horas que lo dicen
Todo encuentra su lugar

Buscaré un silencio largo
Mas allá de donde el viento
Que hoy me lleva

Intro
Determine la distancia

Puente

   Riff 1
Si recordaré las horas a tu lado
Como el sabor que he probado
Nunca se llega a olvidar
Y cuando desmanden mil mañanas nuevas
Y aun me rompe tu recuerdo
Algún presente me traerá
La resignación y olvido de venturas y momentos

intro
Que pasado son y que ya no volverán más

Riff 2
Y te llevaré conmigo y con mis pasos
Y con ello habré de aprender a vivir
Si bien sé que tú lo sabes ya que tanto lo hemos visto

Riff 3
Todo empieza con nosotros donde vamos

Riff 4
Y vida
Que queriendo como bien te quise yo
                         Riff 5
Quien se viene hoy a marchar
Pero cierto es que decir ya no te amo
Prolongo una despedida
Que emprendiste  tiempo atrás
Y con ella me encamino
En esta noche sin luciérnagas
             Intro
Que se abre con las llaves de tu nombre

outro

            
            
Suggest correction
Creating personal tab
Creating personal tab
You can edit any tab online and save it as your Personal.

You can edit, replace or remove any tab part or add personal notes – all changes will be seen only by you.

Personal tabs can be accessed anytime from any device, even offline.
Learn more »
Give kudos to tab author, rate the tab!
1 2 3 4 5
comments
print report bad tab
guest
Wanna post a correction for this tab? Suggest correction