Oops, an error
Loading. Please wait.

Por Favor No Hables De Mí Si Un Día Me Voy tab

version 1
version 1

Whole song

13 views 3 this week
no commentswrite comment
1 2 3 4 5
3 more votes to show rating
add to favorites
×
Save as Personal and add changes to this tab that will be seen only by you. Learn more ›
×
You can save this tab as Personal to edit and correct it or add notes. All changes will be seen only by you. Learn more »
launch autoscroll
font size
0
reset
how to read this tab
guitar tuner
edit
Autoscroll
slow
fast
+/-
esc
set tempo
stop
          MI primer transcripción!!!
Antes de tocar esta tab, es recomendable checar el video de la canción
ya que hay muchas versiones
 y en algunas el Maestro se adorna más? una vez con el ritmo de rag
 se puede improvisar un poco con las notas?

            C                      E*7                             Am
e---------------------------------------------------------3----2---0------
B--------------1------------3-----0------------1----------1----1---1------
G--------------0-1----------1-----1------------2------------2---------2---
D------------------------------------2--------------2-2-------------------
A----0--2--3-------------2----------------0-------------------------------
E-3-------------------3---------------------------------------------------
              D7                  G7                         C
e----2----2----2--------------1-----1-----1-------------------------------
B----1----1----1--------------0-----0-----0--------1-----1----------------
G------2----2----2---------------0------0---0------0-----0----------------
D-0---------------------------------------------------2-------------------
A------------------------------------------------3------------------------
E-------------------------3-----------------------------------------------
(Se repite lo anterior
               E*7                          A*                   D7
e----------------------------------------------3---2--0------2----2----2--
B-------------0------3----2--0--------2--------2---2--2------1----1----1--
G-------------1------1----1--1--------1--1-1-----1------1------2----2----2
D----------------2-----2-------2----2---------------------0---------------
A----0--1--2-------2------------------------------------------------------
E-3-----------------------------------------------------------------------

e------------------------------------------------------------------------
B------------------------------------------------------------------------
G------------------------------------------------------------------------
D------------------------------------------------------------------------
A-------0----2---------0----2----3---------------------------------------
E---3--------------3-----------------------------------------------------

(Se repite el inicio y comienza en G7)

G7       C        C*     E*7              Am
Y por favor no hables de mí si un día me voy
              D7        G7              C
Si un día cambia el cariño que sientes hoy

G7       C        C*     E*7        Am
     Si ya no hay nada bueno que contar
              D7        G7              C
Ya ves que aconsejan preferible no hablar

 E*7                      Am
Sigue tu camino y el mío yo si es lo mejor
 D7           G7
Toma un beso, ve con el
    C
Te doy todo mi amor

G7       C        C*     E*7         Am
Y aunque no hiciera diferencia por favor
           D7             G7               C
¡Oh nena! nunca hables de mi su un día me voy

(Se repite esto varias veces, con solos entre cada repetición)
Espero la disfruten mucho? y si tienen mejoras pues adelante!
Esta es para mejorarla cada vez!
Va dedicada a todas y todos los que preferimos que no se hable
 de nosotros si un día se van!!
Suggest correction
Creating personal tab
Creating personal tab
You can edit any tab online and save it as your Personal.

You can edit, replace or remove any tab part or add personal notes – all changes will be seen only by you.

Personal tabs can be accessed anytime from any device, even offline.
Learn more »
Give kudos to tab author, rate the tab!
1 2 3 4 5
comments
print report bad tab
guest
Wanna post a correction for this tab? Suggest correction