Oops, an error
Loading. Please wait.

Niño Genocida tab

version 1
version 1

Whole song

18 views 1 this week
no commentswrite comment
1 2 3 4 5
3 more votes to show rating
add to favorites
×
Save as Personal and add changes to this tab that will be seen only by you. Learn more ›
×
You can save this tab as Personal to edit and correct it or add notes. All changes will be seen only by you. Learn more »
launch autoscroll
font size
0
reset
how to read this tab
guitar tuner
edit
Autoscroll
slow
fast
+/-
esc
set tempo
stop
INTRO:
E|------------------|
B|------------------|
G|-7--5-------------|
D|-7--5-5---3--7-5--| X2
A|-5--3-5---3--7-5--|
E|------3---1--5-3--|

D5   C5 G5      F5      A5 G5
Solo pocos años de vida perdida
D5      C5 G5       F5     A5 G5
que solo lo dejaste sin tu compañía
D5     C5 G5       F5     A5 G5
Tirado en la calle luchando por su vida
D5      C5 G5       F5     A5 G5
Esta es la historia de un niño genocida

(LA, LA, LA)
E|-----------------------|
B|-----------------------|
G|-777-5-----------------| X2
D|-777-5-5555-333-7-5555-|
A|-555-3-5555-333-7-5555-|
E|-------3333-111-5-3333-|

E|----------------------------------------------|
B|----------------------------------------------|
G|-999-7------777-5-------999-7------777-5------|
D|-999-7-7777-777-5-5555--999-7-7777-777-5-5-5--| X2
A|-777-5-7777-555-3-5555--777-5-7777-555-3-5-5--|
E|-------5555-------3333--------5555-------3-3--|

D5     C5 G5      F5      A5 G5
El miraba triste, muy tristemente
D5      C5 G5              F5      A5 G5
El desprecio de los seres, de los seres inclementes
D5       C5 G5     F5      A5 G5
Sonrisas burlescas de toda la gente
D5         C5 G5      F5      A5 G5
Tratando a los niños, a los niños inocentes

(LA, LA, LA)
E|-----------------------|
B|-----------------------|
G|-777-5-----------------| X2
D|-777-5-5555-333-7-5555-|
A|-555-3-5555-333-7-5555-|
E|-------3333-111-5-3333-|

E|----------------------------------------------|
B|----------------------------------------------|
G|-999-7------777-5-------999-7------777-5------|
D|-999-7-7777-777-5-5555--999-7-7777-777-5-5-5--| X2
A|-777-5-7777-555-3-5555--777-5-7777-555-3-5-5--|
E|-------5555-------3333--------5555-------3-3--|


D5      C5 G5  F5      A5 G5
Violado física y mentalmente
D5          C5 G5       F5      A5 G5
Explotados y humillados por toda la gente
D5      C5 G5        F5      A5 G5
Solo es lo que tiene ahora en su mente
D5       C5 G5   F5      A5 G5
Lucha por su vida trabajo demente

(LA, LA, LA)
E|-----------------------|
B|-----------------------|
G|-777-5-----------------| X2
D|-777-5-5555-333-7-5555-|
A|-555-3-5555-333-7-5555-|
E|-------3333-111-5-3333-|

E|----------------------------------------------|
B|----------------------------------------------|
G|-999-7------777-5-------999-7------777-5------|
D|-999-7-7777-777-5-5555--999-7-7777-777-5-5-5--| X2
A|-777-5-7777-555-3-5555--777-5-7777-555-3-5-5--|
E|-------5555-------3333--------5555-------3-3--|

E|-----------------|------------X3-|-----------|
B|-----------------|---------------|-----------|
G|-9-7---7-5---9-7-|-9-7-----9-7---|-9-7-------|
D|-9-7-7-7-5-5-9-7-|-9-7-7-5-9-7---|-9-7-7-5---|
A|-7-5-7-5-3-5-7-5-|-7-5-7-5-7-5---|-7-5-7-5---|
E|-----5-----3-----|-----5-3-------|-----5-3---|

E|-----------------------|
B|-----------------------|
G|-777-5-----------------| X2
D|-777-5-5555-333-7-5555-|
A|-555-3-5555-333-7-5555-|
E|-------3333-111-5-3333-|

E|-----------------------|
B|-----------------------|
G|-777-5-----------------|
D|-777-5-5555-333-7-5555-|
A|-555-3-5555-333-7-5555-|
E|-------3333-111-5-3333-|

ACORDES:
E|--x---x---x---x---x---|
B|--x---x---x---x---x---|
G|--5---7---x---x---x---|
D|--5---7---5---7---3---|
A|--3---5---5---7---3---|
E|--x---x---3---5---1---|
    C5  D5  G5  A5  F5

            
            
Suggest correction
Creating personal tab
Creating personal tab
You can edit any tab online and save it as your Personal.

You can edit, replace or remove any tab part or add personal notes – all changes will be seen only by you.

Personal tabs can be accessed anytime from any device, even offline.
Learn more »
Give kudos to tab author, rate the tab!
1 2 3 4 5
comments
print report bad tab
guest
Wanna post a correction for this tab? Suggest correction