Oops, an error
Loading. Please wait.

Avísame tab

version 2
version 2

Whole song

34 views 1 this week
no commentswrite comment
1 2 3 4 5
3 more votes to show rating
add to favorites
×
Save as Personal and add changes to this tab that will be seen only by you. Learn more ›
×
You can save this tab as Personal to edit and correct it or add notes. All changes will be seen only by you. Learn more »
launch autoscroll
font size
0
reset
how to read this tab
guitar tuner
edit
Autoscroll
slow
fast
+/-
esc
set tempo
stop
Intro
------------------|-------------------------
------------------|-------------------------
---------0--------|---------0-----2---------
-----0h2--- 2-0-2-|-----0h2---2-0-----------
------------------|-------------------------
-0----------------|--0----------------------

------------------|---------------
------------------|---------------
---------0--------|---------------
-----0h2--- 2-0-2-|---0---0-------
------------------|-----3---3-----
-0----------------|---------------
I.
MIm       DO
En la oscuridad
       SI
Me siento a esperar
          MIm   RE#
El día extraño
         MIm
Que quieras hablar
       DO
De querer cambiar
    SI                       MIm      RE#
El sueño que duermes por un reto de frente
   DO           SOL
El día que te atrevas
       RE       Riff 1 4|--2h4h5---4--2p0-----|
A estirar tu vision
     DO          SOL          RE      RE#
Y mirar otros caminos con la mente abierta en dos

Intro
I.(igual a arriba)
Me siento a soñar
Que tu curiosidad
Sube un peldaño
Que te aburre ya
Tanto fantasear
Con las guirnaldas que tienden
Pa' tenerte incosciente
Y el día que decidas escribir tu canción
                                  Re (aqui no sube a Re#)
Y bailar tu propio baile sin cadenzas
                SOL
Invítame al rumbón...

     SI
Ay avísame
    MIm            DO
Ay avísame   ehe ehe
     SOL
Ay avísame
     SI
Ay avísame
    MIm           DO
Ay avísame  ehe ehee
      Riff 2
Que ahí voy

Riff 2 (x2)
-----------------|-----------------|
-----------------|-----------------|
-----0-----------|-----0-----------|
-0h2---2-0-2-0---|-0h2---2-0-2-0---|
---------------3-|---------------2-|
0----------------|-----------------|

----------------------------------|
----------------------------------|
-----0----------------------------|
-0h2---2-0-2-0-4--2--5--4--7--5--9|
----------------------------------|
0---------------------------------|


MIm
I.
En la oscuridad
Me siento a esperar
El día extraño
Que quieras hablar
De querer cambiar
El sueño que duermes por un reto de frente
El día que te atrevas
A cantar tu canción
Y descubras tu "soneo" a tu manera
Invítame al rumbón...
 Repite coro
Ay avisame 4 veces y outro
Outro
------------------|-------------------------
------------------|-------------------------
---------0--------|---------0-----2---------
-----0h2--- 2-0-2-|-----0h2---2-0-----------
------------------|-------------------------
-0----------------|--0----------------------

------------------|---------------
------------------|---------------
---------0--------|---------------
-----0h2--- 2-0-2-|---0-----------
------------------|-----3-3-2-----
-0----------------|---------------

            
            
Suggest correction
Creating personal tab
Creating personal tab
You can edit any tab online and save it as your Personal.

You can edit, replace or remove any tab part or add personal notes – all changes will be seen only by you.

Personal tabs can be accessed anytime from any device, even offline.
Learn more »
Give kudos to tab author, rate the tab!
1 2 3 4 5
comments
print report bad tab
guest
Wanna post a correction for this tab? Suggest correction