Oops, an error
Loading. Please wait.

Le Diré tab

version 1
version 1

Whole song

28 views 1 this week
no commentswrite comment
1 2 3 4 5
3 more votes to show rating
add to favorites
×
Save as Personal and add changes to this tab that will be seen only by you. Learn more ›
×
You can save this tab as Personal to edit and correct it or add notes. All changes will be seen only by you. Learn more »
launch autoscroll
font size
0
reset
how to read this tab
guitar tuner
edit
Autoscroll
slow
fast
+/-
esc
set tempo
stop
olas banda ai les djo sto d la firma, q sta compelto
con todo y el intro del acordeon, ai chequenlo
dedicada pa  "KARINA HERNANDEZ"  y le digo q:

"Que la sueño a diario
Y que solo verla lejos me pone muy triste"


Intro:F  Dm  A# Gm C (2 Veces)


A----------------------------------------------------
D-------------------10h11p10-10----------------------
G--------------10-10-------------------------10------
B-10-10-10-8-8-------------------10-10-10-8-8--8-10--
e---8---------------------------8--8-----------------

A----------------------------------------------------
D----------------------------------------------------
G-------------------------------10------10-----------
B-8-10--------------10-10-10-8-8--10-8-8--8-10-8-----
e-----8-8-10-10-10-8--8------------------------------

          F
Si yo tuviera el valor
               A#
De pararme enfrente de ella y decirle
                F
Que la sueño a diario

Me siento a su lado
                  A#                C
Y que solo verla lejos me pone muy triste.

        F
Si yo pudiera decirle que
             A#
Cada mañana que la veo pasar
          F
Sigo ilusionado

Y no estoy animado  a confesarle
        A#         C
Que la amo locamente.


         Gm
Ella no sabe
               C
Como la estoy queriendo
          Gm
Ni se imagina
              C
Que mañana le diré?


CORO
       F
Le diré que yo la quiero mucho
            A#
Que se ha metido aquí en mi corazón
         F                                         Gm
Que un sentimiento se apodera fuertemente de mis pensamientos
            C
Que me muero por su amor.


      F
Le diré que con tan solo verla
            A#
Mi alma se acelera

Y solo pienso en ella
          F                                   Gm
Que si  quisiera ser mi novia le daría mi vida entera
          C
Y solo viviría por ella.


          Gm
Ella no sabe?

F  Dm  A# Gm C (2 Veces)
A----------------------------------------------------
D-------------------10h11p10-10----------------------
G--------------10-10-------------------------10------
B-10-10-10-8-8-------------------10-10-10-8-8--8-10--
e---8---------------------------8--8-----------------

A----------------------------------------------------
D----------------------------------------------------
G-------------------------------10------10-----------
B-8-10--------------10-10-10-8-8--10-8-8--8-10-8-----
e-----8-8-10-10-10-8--8------------------------------

         Gm
Ella no sabe
               C
Como la estoy queriendo
          Gm
Ni se imagina
              C
Que mañana le diré?


CORO
       F
Le diré que yo la quiero mucho
            A#
Que se ha metido aquí en mi corazón
         F                                         Gm
Que un sentimiento se apodera fuertemente de mis pensamientos
            C
Que me muero por su amor.


      F
Le diré que con tan solo verla
            A#
Mi alma se acelera

Y solo pienso en ella
          F                                   Gm
Que si  quisiera ser mi novia le daría mi vida entera
          C
Y solo viviría por ella.


          Gm
Ella no sabe?

            
            
Suggest correction
Creating personal tab
Creating personal tab
You can edit any tab online and save it as your Personal.

You can edit, replace or remove any tab part or add personal notes – all changes will be seen only by you.

Personal tabs can be accessed anytime from any device, even offline.
Learn more »
Give kudos to tab author, rate the tab!
1 2 3 4 5
comments
print report bad tab
guest
Wanna post a correction for this tab? Suggest correction