Oops, an error
Loading. Please wait.

El Cóndor tab

version 2
version 2

Whole song

164 views 1 this week
no commentswrite comment
1 2 3 4 5
3 more votes to show rating
add to favorites
×
Save as Personal and add changes to this tab that will be seen only by you. Learn more ›
×
You can save this tab as Personal to edit and correct it or add notes. All changes will be seen only by you. Learn more »
launch autoscroll
font size
0
reset
how to read this tab
guitar tuner
edit
Autoscroll
slow
fast
+/-
esc
set tempo
stop
Intro e --------------------------
      B -4-3-1--------------------
      G -------3-0--3-0-----------
      D ----------------5-5-3-3-3-      X 5
      A ----------------5-5-3-3-3-
      E ----------------3-3-1-1-1-

   E Uuuuhhh Aaahhh Uuuuuhhhh Aaaaah

Fig. 1
e -------------------------------------
B -------------------------------------
G -------------------------------------
D ---------------------------------222-
A -----------------1-0-------------222-
E -0-3-0-3-0-3-0-3-----0-3-0-3-0-3-000-


Fig.1
Esta no es una cancion es un insulto radikal

Fig.1
como quisieramos mear en un casco militar

Fig.1
tambien podriamos quemar una bandera de Renovacion Nacional

Fig.1
y ver tirado en un basural a uno que otro puto General


Fig.1
Y veo un cura Facho y Maricon! y un politico farsante

Fig.1
yo te digo padre Hasbun venga el burro y te lo plante!

Fig.1
como quisiera ver venir volar desde las altas montañas

Fig.1
un gran condor con diarrea que cagara y que cagara..

         D              C            D                  C
Y que cagara En el Congreso en la Moneda y en nuestra sana Iglesia Santa!!


Fig. 2
e ---------------------------------------
B ---------------------------------------
G ---------------------------------------
D ---------------------------------------
A -3-5-3-5-3-5-3-5555-1-3-1-3-1-3-1-3333-
E ---------------------------------------

Fig.2
Esta es la historia de Alicia en el pais de las mentiras

Fig.2
mordida violada por perros capitalistas

Fig.2
la historia de mi patria usada y manoseada

Fig.2
por tanto cerdo perro puto negociante..

 D - F* - G* (esto se toca hartas veces, luego)

 D - F* - G*- D - C - B (esto tambien un par de veces)

 E/D#/D/C#/C..

ahora viene la mejor parte de esta cancion..

Fig.3
e --------------
B --------------
G --------------
D -2-5-2-5-7-5--
A -2-5-2-5-7-5--
E -0-3-0-3-5-3--

Fig.4
e --------------
B --------------
G --------------
D -222222-5/7/5-
A -222222-5/7/5-
E -000000-3/5/3-

Fig.4
Como quisiera ver venir volar de las altas montañas

Fig.4
un gran condor con diarrea que cagara y que cagara

Fig.4
que cagara en el Congreso que cagara en la Moneda

Fig.4
que cagara en nuestra Iglesia que cagara que cagara

Fig.4
como quisiera ver venir volar de las altas montañas

Fig.4
un gran condor con diarrea que cagara y que cagara

 C - B X4

Fig.4
Esta es la historia de Alicia en el pais de las mentiras

Fig.4
mordida violada por perros capitalistas

Fig.4
la historia de mi patria usada y manoseada

Fig.4
la historia de Alicia en el pais de las Mentiras!!

   E     D     C     F*    G*      B     C#   D#

e ---   ---   ---   ----   ----   ---   ---   ---
B ---   ---   ---   ----   ----   ---   ---   ---
G ---   -7-   -5-   -10-   -12-   -4-   -6-   -8-
D -2-   -7-   -5-   -10-   -12-   -4-   -6-   -8-
A -2-   -5-   -3-   -8--   -10-   -2-   -4-   -6-
E -0-   ---   ---   ----   ----   ---   ---   ---


..bueno, aki les va una de las grandes de Fiskales, la cancion debiera estar
buena.. llevo mutxo tiempo tratando de sacarla y por fin resulto.. asi que..
a tocarla se ha ditxo!!.. adéu.-

            
            
Suggest correction
Creating personal tab
Creating personal tab
You can edit any tab online and save it as your Personal.

You can edit, replace or remove any tab part or add personal notes – all changes will be seen only by you.

Personal tabs can be accessed anytime from any device, even offline.
Learn more »
Give kudos to tab author, rate the tab!
1 2 3 4 5
comments
print report bad tab
guest
Wanna post a correction for this tab? Suggest correction