Oops, an error
Loading. Please wait.

Me Equivocaría Otra Vez tab

version 2
version 2

Whole song

Interactive

107 views 1 this week
no commentswrite comment
1 2 3 4 5
3 more votes to show rating
add to favorites
×
Save as Personal and add changes to this tab that will be seen only by you. Learn more ›
×
You can save this tab as Personal to edit and correct it or add notes. All changes will be seen only by you. Learn more »
launch autoscroll
font size
0
reset
how to read this tab
guitar tuner
edit
Autoscroll
slow
fast
+/-
esc
set tempo
stop
Es versión de "LOS POTES" de Santiago de Compòstela

Intro:
Gm               Gm
e|-------------------------------------10--|
b|------------------------------8-----11---|
g|--------------0--------------7-----12----|
d|------------0---------------------12-----|
a|-1p0--------------1p0--------------------|
e|-----1-3--------------1-3----------------|
Gm                                              Bb            Dm7
Se torció el camino tú ya sabes que no puedo volver b|----3-----|
                                                    g|-3----3-2-|
                                                    d|--3-------|
                      F                      Gm   e|-----3--|
Son cosas del destino,  siempre me quiere morder  b|--3-----|
                                        Bb   b|----3---1---|
El horizonte se confunde con un negro telón  g|-3--------2-|
                                             d|--5---------|
        Dm7         F                      Gm                Cm
Y puede ser, cómo decir que se acabó la función g|--3--2--0-|
                   F                   Gm                  Bb
Ha sido divertido, me equivocaría otra vez   e|-------6----6-|
                                             b|-----8---8--6-|
                                             g|-3r7--------7-|
                                               F                Eb
Quisiera haber querido lo que no he sabido querer b|-6---6-6-6-6s4-|
                                                  g|-5---5-5-5-5s3-|
                                                  d|-5h7-7-5-7-7s5-|
                                             Bb                Dm7
Quieres bailar conmigo puede que te pise los pies  b|--3--1----1-|
                          g|-3h5p3p0----------------3-------3--2-|
                          d|----------h3h5---------------------0-|
                          a|-----------------h3h5----------------|
               F                      Eb                      Bb
No soñaré solo porque me he quedao dormido   g|-3h5p3-----------|
                                             d|------5-3h5------|
                                             a|-----------5-3-1-|
                                     F                 Eb
No voy a despertarme porque salga el sol   b|-------1-|
                                           g|-2--3----|
                 F                    Gm              Bb6
Ya sé llorar una vez por cada vez que río    e|-----6----|
                                             b|-------8--|
                                             g|-3r7------|
         C7         Eb     F                 Gm
No sé restar, no sé restar Tu mitad a mi corazón
Gm
a|---0-1-3-3s5----0-1------|---0-1-3-3s5----0-1------|
e|-3------------3-----1b-3-|-3------------3-----1b-3-|

Gm                                                Bb  Dm7
Puede ser que la respuesta sea no preguntarse por qué
                       F                  Gm
Perderse por los bares  donde se bebe sin sed   d|-5r7r8-|
                                         Bb
Virgen de la locura nunca más te voy a rezar
                 Dm7          F                       Gm          Cm
Que me he enterao    de los pecados que me quieres quitar e|-5-6-|

                   F                     Gm            Bb
Será más divertido cuando no me toque perder e|-6--------|
                                             b|--------6-|
                                             g|----3r7---|
                                              F                     Eb
Sigo apostando cinco y cada dos por tres sale seis  d|-5--7-7---7h7-|
                                                    a|-6--8-8---6h8-|
                                                  Bb
Yo bailaría contigo pero es que estoy sordo de un pie
                F
d|-3-5-3---------|
a|------6-3r5-5s3|
                                      Eb                Bb
No soñaré solo porque me he quedao dormido b|----8-6----6-|
                                           g|-3r7---8---7-|
                                           s|---------8-8-|
                                     F
No voy a despertarme porque salga el sol

Eb               F                    Gm
Ya sé llorar una vez por cada vez que río e|-3r---10-|
         C7         Eb     F                 Gm
No sé restar, no sé restar Tu mitad a mi corazón

SOLO:
Gm                     Bb          Dm7          F             Gm
b|-----------------------3-3h4p3-1r3-1r3-1r3-1------------------|
g|----------------5-5h7----------2r3-2r3-2r3---2---0h2-0--------|
d|---------5-7-7h8---------3----------------------------3-3r4r5-|
a|--------5-----------------------------------------------------|
e|--3-5r6-------------------------------------------------------|
        Bb       Dm7             Gm                Bb
e|------6--------10----------10-15-----------------6-|
b|-----6--------8----------11--------6h8p6--------6--|
g|-3r7------3r7--------7r12----------7-----7---5-7---|
d|-------------------------------------------8-------|
   G                      Dm7       F      Gm Eb  Gm  Dm7  Cm
e|------------------------10------6-5----------------------3-|
b|-6h8p6----------------10-------6------------4---3---1----4-|
g|-7------7-----------10-----3r5-------------3---3---3-----5-|
d|--------8h10p8-10r12------------------3r5----------------5-|
a|---------------------------------------------------------3-|
                    F                  Gm               Bb
Ha sido divertido, me equivocaría otra vez   e|-6p5-----6--|
                                             b|----8-6--6--|
                                              F
Quisiera haber querido lo que no he sabido querer  Eb F F Eb F Eb
                                             Bb              F
Quieres bailar conmigo puede que te pise los pies  g|-7h8p7--|
                                   Eb                  Bb
Soñaré solo porque me he quedao dormido  b|----8-6-------|
                                         g|-3r8----8---7-|
                                         d|----------8---|
                                     F   Eb
No voy a despertarme porque salga el sol
                 F                    Gm
Ya sé llorar una vez por cada vez que río
         C7      Eb
No sé restar, no sé restar
F                 Gm    a|-----0-1-33r5-|
Tu mitad A MI corazón   e|-3------------|
         C7
No sé restar
F                 Gm   a|-----0-1-------|
Tu mitad A MI corazón  e|-3-------1-1h3-|
         C7         Eb     F                 Gm
No sé restar, no sé restar Tu mitad a mi corazón
 Gm
e|------------------------------------10----------------------|
b|------------------------------11--13---------11-10h11-------|
g|------------------------12--14---------12--14---------10r12-|
d|------------------------------------------------------------|
a|---0-1-3-3r5---0-1------------------------------------------|
e|-3-----------3-----1b-3-------------------------------------|

            
            
Suggest correction
Creating personal tab
Creating personal tab
You can edit any tab online and save it as your Personal.

You can edit, replace or remove any tab part or add personal notes – all changes will be seen only by you.

Personal tabs can be accessed anytime from any device, even offline.
Learn more »
Give kudos to tab author, rate the tab!
1 2 3 4 5
comments
print report bad tab
guest
Wanna post a correction for this tab? Suggest correction