Oops, an error
Loading. Please wait.

Circo Beat bass

version 1
version 1

Whole song

168 views 1 this week
no commentswrite comment
1 2 3 4 5
3 more votes to show rating
add to favorites
×
Save as Personal and add changes to this tab that will be seen only by you. Learn more ›
×
You can save this tab as Personal to edit and correct it or add notes. All changes will be seen only by you. Learn more »
launch autoscroll
font size
0
reset
guitar tuner
edit
Autoscroll
slow
fast
+/-
esc
set tempo
stop
Transcripcion por Armando Núñez R.

Tablatura para bajo

h: Hammer on
p: Pull off
/: Slay Up
\: Slay Down
x: Muted Note
S_: Semicorcheas
*: Segmentos de la letra como guia


'El bajo entra con la bateria en el 5to compas'

[Intro - Estrofa 1]


    Em                [S___]
G|-------------------------|-----------------------|
D|-------2-----0h2---------|-----------------------|
A|----------0--------------|----------------x-x-x--|
E|--0-----------------0-0--|-0--1--2---------------|
*Misterio de amor...
    Bm                [S___]            [S________]
G|-------4-----2h4----2-2--|-2--3--4----2h4-2------|
D|----------0--------------|-------------------4---|
A|--2----------------------|---------------------0-|
E|-------------------------|-----------------------|

    Bm                [S___]
G|-------4-----2h4----2-2--|-2--3--4---------------|
D|----------0--------------|-----------------------|
A|--2----------------------|------------------2--0-|
E|-------------------------|-----------------------|

    F#m               [S___]            [S________]
G|-------------------------|-----------------------|
D|-------4-----2h4----2-2--|-2--3--4----2h4-2------|
A|----------0--------------|-------------------4---|
E|--2----------------------|---------------------0-|

    Em                [S___]      F#m
G|-------------------------|-----------------------|
D|-------2-----0h2---------|-----------------------|
A|----------0--------------|-----------------------|
E|--0-----------------0-0--|-0--1--2----------2--0-|

    Bm                [S___]
G|-------4-----2h4----2-2--|-2--3--4---------------|
D|----------0--------------|-----------------------|
A|--2----------------------|------------------4--0-|
E|-------------------------|-----------------------|
                                             *Circo...

[Coro]

     D                 [S_]
G|-------------------------|-----------------------|
D|-------------------------|-----------------------|
A|--/5-----------------0-3-|--5-----5-------5--5h7-|
E|-------------------------|-----------------------|
   *Beat...
     Am
G|-------------------------|-----------------------|
D|-------------------------|-----------------------|
A|-------------------------|-----------------------|
E|---5------5----3-----5---|---5--------5h7p5-\-3--|

    Em                  G
G|-------------------------|-----------------------|
D|-------------------------|-----------------------|
A|-------------------------|-----------------------|
E|--0---------------2---3--|---3---------3------3--|

    D
G|-------------------------|-----------------------|
D|-------------------------|-----------------------|
A|--5-----------5---5--5---|--5-----5-------2--0---|
E|-------------------------|-----------------------|
                                           *Circo...
    D
G|-------------------------|-----------------------|
D|----------------------4--|--4--5--7------5--4----|
A|--/5------5-----5--7-----|-----------------------|
E|-------------------------|-----------------------|
   *Beat...
    Am
G|-------------------------|-----------------------|
D|-------------------------|-----------------------|
A|-------------------------|-----------------------|
E|--5------5------3----5---|---5--------5h7p5-\-3--|

    Em                  G
G|-------------------------|-----------------------|
D|-------------------------|-----------------------|
A|-------------------------|-----------------------|
E|--0---------------2---3--|---3---------3------3--|

    D
G|-------------------------|-----------------------|
D|-------------------------|-----------------------|
A|--5----5------0---5h7--5-|--5---------5\---------|
E|-------------------------|-----------------------|


[Estrofa 2]

    Bm                [S___]
G|-------4-----2h4----2-2--|-2--3--4---------------|
D|----------0--------------|-----------------------|
A|--2----------------------|------------------2--0-|
E|-------------------------|-----------------------|

    F#m               [S___]
G|-------------------------|-----------------------|
D|-------4-----2h4----2-2--|-2--3--4---------------|
A|----------0--------------|-----------------------|
E|--2----------------------|------------------2--1-|


    Em                [S___]      F#m
G|-------------------------|-----------------------|
D|-------2-----0h2----2-2--|-2--3--4---------------|
A|----------0--------------|-----------------------|
E|--0----------------------|------------------2--0-|

    Bm                [S___]
G|-------4-----2h4----2-2--|-2--3--4---------------|
D|----------0--------------|-----------------------|
A|--2----------------------|------------------2--0-|
E|-------------------------|-----------------------|

    Bm                [S___]
G|-------4-----2h4----2-2--|-2--3--4---------------|
D|----------0--------------|-----------------------|
A|--2----------------------|------------------2--0-|
E|-------------------------|-----------------------|

    F#m               [S___]
G|-------------------------|-----------------------|
D|-------4-----2h4----2-2--|-2--3--4---------------|
A|----------0--------------|-----------------------|
E|--2----------------------|------------------2--1-|

    Em                [S___]      F#m
G|-------------------------|-----------------------|
D|-------2-----0h2----2-2--|-2--3--4---------------|
A|----------0--------------|-----------------------|
E|--0----------------------|------------------2--0-|

    Bm                [S___]
G|-------4-----2h4----2-2--|-2--3--4---------------|
D|----------0--------------|-----------------------|
A|--2----------------------|------------------4--0-|
E|-------------------------|-----------------------|
                                             *Circo...

[Coro]   'Al final del 2do coro incluir este Riff'

    F#
G|-------------------|-------------------|
D|-------------------|-------------------|
A|-------------------|-------------------|
E|--2-2-2-2-2-2-2-2--|--2-2-2-2-2-2-2-2--|
       *Circo beeeeeeeeeat....  haooooo..

[Solo]  'En el solo de guitarra el bajo se
         toca como en la 2da estrofa'

[Coro]

    F#
G|-------------------|-------------------|
D|-------------------|-------------------|
A|-------------------|-------------------|
E|--2-2-2-2-2-2-2-2--|--2-2-2-2-2-2-2-2--|
       *Circo beeeeeeeeeat....  haooooo..

[Estrofa 3]  'Igual que la estrofa 2'


    Bm                [S___]
G|-------4-----2h4----2-2--|-2--3--4---------------|
D|----------0--------------|-----------------------|
A|--2----------------------|------------------2--0-|
E|-------------------------|-----------------------|
*Y los monos...
    F#m               [S___]
G|-------------------------|-----------------------|
D|-------4-----2h4----2-2--|-2--3--4---------------|
A|----------0--------------|-----------------------|
E|--2----------------------|------------------2--1-|


    Em                [S___]      F#m
G|-------------------------|-----------------------|
D|-------2-----0h2----2-2--|-2--3--4---------------|
A|----------0--------------|-----------------------|
E|--0----------------------|------------------2--0-|
*Llegaremos en jeep...
    Bm                [S___]
G|-------4-----2h4----2-2--|-2--3--4---------------|
D|----------0--------------|-----------------------|
A|--2----------------------|------------------2--0-|
E|-------------------------|-----------------------|


[Outro]

    Bm                [S___]            [S________]
G|-------4-----2h4----2-2--|-2--3--4----2h4-2------|
D|----------0--------------|-------------------4---|
A|--2----------------------|---------------------0-|
E|-------------------------|-----------------------|
*Circo Beat...

(Repite x17)

Estrutura de la tablatura

[Estrofa 1]
[Coro]
[Estrofa 2]
[Coro]
[Solo]
[Coro]
[Estrofa 3]
[Outro]

Nota: El bajo de esta cancion es un poco complicado y
lleno de detalles, hice la transcripcion a oido,
resaltando las notas mas representativas y te aseguro
que si la tocas asi sonara fenomenal, debes escucharla
bien para captar el feeling del
bajo.

Comentarios y sugerencias: mandos22@
Armando Nuñez

            
            
Suggest correction
Creating personal tab
Creating personal tab
You can edit any tab online and save it as your Personal.

You can edit, replace or remove any tab part or add personal notes – all changes will be seen only by you.

Personal tabs can be accessed anytime from any device, even offline.
Learn more »
Give kudos to tab author, rate the tab!
1 2 3 4 5
comments
print report bad tab
guest
Wanna post a correction for this tab? Suggest correction