Oops, an error
Loading. Please wait.

Anarquía En La Escuela tab

version 3
version 3

Whole song

Interactive

by Flema
27 views 1 this week
no commentswrite comment
1 2 3 4 5
3 more votes to show rating
add to favorites
×
Save as Personal and add changes to this tab that will be seen only by you. Learn more ›
×
You can save this tab as Personal to edit and correct it or add notes. All changes will be seen only by you. Learn more »
launch autoscroll
font size
0
reset
how to read this tab
guitar tuner
edit
Autoscroll
slow
fast
+/-
esc
set tempo
stop
e|-----------------------------------|
B|-----------------------------------|
G|-----------------------------------|   x4
D|--0--2--3--3--3-3--2--0------------|
A|-------------------------3--3--3-3-|
E|-----------------------------------|

F#5 G5 F#5 G5 F#5 G5  x2

C5        F5
No va más basta ya
C5        F5
No soporto la escuela
C5        F5
Dias aburrdios prisioneros
F#5   G5    F#5    G5   F#5   G5
Hoy los chicos solo quieren punk rock
F#5   G5    F#5    G5   F#5   G5
Hoy los chicos solo quieren punk rock
C5        F5
Te dire ... que hacer.
C5        F5
Hoy vamos a enloquecer
C5              F5
No somos autistas como ayer
F#5   G5    F#5    G5   F#5   G5
Hoy los chicos solo quieren punk rock
F#5   G5    F#5    G5   F#5   G5
Hoy los chicos solo quieren punk rock
F5          C5
Escupiremos al director
F5          C5
Y mearemos al celador
F5          C5
Incendiaremos todas las aulas
F#5 G5  F#5 G5 F#5 G5
Anarquia en la escuela.
F#5 G5  F#5 G5 F#5 G5
Anarquia en la escuela.
F5          C5.
Atacaremos a profesores
F5          C5.
Los colgaremos de sus corbatas
F5          C5
Y es sus cabezas aremos caca
F#5 G5  F#5 G5 F#5 G5
Anarquia en la escuela.
F#5 G5  F#5 G5 F#5 G5
Anarquia en la escuela.
F#5 G5  F#5 G5 F#5 G5
Anarquia en la escuela.
F#5 G5  F#5 G5 F#5 G5
Anarquia en la escuela.

Solo: Distorcionen la guitarra que les va a sonar mucho mejor

e|---------------------------------------------------------------|
B|---------------------------------------------------------------|
G|-0-2-4-5~--10~-10~10~10~10~10~10~-2-4-5-5-7h5h4h5h7--10~10~10~-|
D|---------------------------------------------------------------|
A|---------------------------------------------------------------|
E|---------------------------------------------------------------|

e|------------------------------------------------------------------|
B|------------------------------------------------------------------|
G|-5-5-3-5-5-3-5-5--10-10-8-10-10-8-10-10---------------------------|
D|----------------------------------------3/4-4-4-3/4-4-4-3/4-4-4-4-|
A|------------------------------------------------------------------|
E|------------------------------------------------------------------|

e|---------------------------------------------------|
B|-4/8--12h10h8h10h12h10h8h10h12h10h8h10h--13~13~12~-|
G|---------------------------------------------------|
D|---------------------------------------------------|
A|---------------------------------------------------|
E|---------------------------------------------------|

C5          F5
Vamos nena no mires a atras
C5          F5
Unite a la banda vasmos a fornicar
C5          F5
Derrumbaremos esta sociedad
F#5   G5    F#5    G5   F#5   G5
Hoy los chicos solo quieren punk rock
F#5   G5    F#5    G5   F#5   G5
Hoy los chicos solo quieren punk rock
F5          C5
Escupiremos al director
F5          C5
Y mearemos al celador
F5          C5
Incendiaremos todas las aulas
F#5 G5  F#5 G5 F#5 G5
Anarquia en la escuela.
F#5 G5  F#5 G5 F#5 G5
Anarquia en la escuela.
F5          C5.
Atacaremos a profesores
F5          C5.
Los colgaremos de sus corbatas
F5          C5
Y es sus cabezas aremos caca
F#5 G5  F#5 G5 F#5 G5
Anarquia en la escuela.
F#5 G5  F#5 G5 F#5 G5
Anarquia en la escuela.
F#5 G5  F#5 G5 F#5 G5
Anarquia en la escuela.
F#5 G5  F#5 G5 F#5 G5    C5
Anarquia en la escuela ha ha ...

            
            
Suggest correction
Creating personal tab
Creating personal tab
You can edit any tab online and save it as your Personal.

You can edit, replace or remove any tab part or add personal notes – all changes will be seen only by you.

Personal tabs can be accessed anytime from any device, even offline.
Learn more »
Give kudos to tab author, rate the tab!
1 2 3 4 5
comments
print report bad tab
guest
Wanna post a correction for this tab? Suggest correction