Oops, an error
Loading. Please wait.

Gatillo Fácil tab

version 1
version 1

Whole song

29 views 1 this week
no commentswrite comment
1 2 3 4 5
3 more votes to show rating
add to favorites
×
Save as Personal and add changes to this tab that will be seen only by you. Learn more ›
×
You can save this tab as Personal to edit and correct it or add notes. All changes will be seen only by you. Learn more »
launch autoscroll
font size
0
reset
how to read this tab
guitar tuner
edit
Autoscroll
slow
fast
+/-
esc
set tempo
stop
|----12---12-14-14-12-14-12-14-12-----------|
|-12----12------------------------14--------|
|-------------------------------------------|
|-------------------------------------------|
|-------------------------------------------|
|-------------------------------------------|

|----12---12--14-14-14-14-12-14-12-14-12----|
|-12----12-------------------------------14-|
|-------------------------------------------|
|-------------------------------------------|
|-------------------------------------------|
|-------------------------------------------|

(Acá continua, Pero no lo saque bien con la guitarra,
espero sacarlo uno de estos días)


A
Le dicen gatillo fácil, para mí lo asesinó
      G                                     A [Riff 1]
a ese pibe de la calle que en su camino cruzó.

Él se la daba de macho con su chapa policial,
      G                                     A [Riff 1]
lleva fierro bien polenta y permiso pa' matar.
A
A él le dicen federico, yo le digo polizón,
       G                                        A [Riff 2]
y como canta Flor de Piedra, vos sólo sos un botón.

Em             D   [Riff 3]
Vos, sos un boton
                    A [Riff 4]
nunca vi un policia

tan amargo como vos

A                                  G
¡Gatillo fácil!, te gritan al pasar,
A                           G
¡gatillo fácil!, y nada más.
A                               G
Gatillo fácil, nunca vas a pagar,
A                G                 A
porque sos cana, rati de la Federal.

Los Mismos acordes y riffs:

No se olviden de Cabezas, de Bulacio, Bru y Bordón.

¡Ay!, la lista es tan larga que no puedo cantar hoy.

Esto le pasa a cualquiera, cuidate de ese botón;

Dios no quiera que en la fila el siguiente seas vos.


Riff 1:
|----------7-5------------7-5---------------|
|--------------7-5-5-5-5------7-5-----------|
|-------------------------------------------|
|-------------------------------------------|
|-------------------------------------------|
|-------------------------------------------|

Riff 2:

|----------7-5------------------------------|
|--------------7-5---3-0--------------------|
|-------------------------------------------|
|-------------------------------------------|
|-------------------------------------------|
|-------------------------------------------|

Riff 3:

|----------7-5------5-7---------------------|
|--------------7-5--------------------------|
|-------------------------------------------|
|-------------------------------------------|
|-------------------------------------------|
|-------------------------------------------|

Riff 4:

|-------------------------------------------|
|--------------7-5--------------------------|
|-------------------7-5v--------------------|
|-------------------------------------------|
|-------------------------------------------|
|-------------------------------------------|

COMO SE DIERON CUENTA ESTÁ TODO PASADO A GUITARRA,
SOY GUITARRISTA Y ME ENCANTA ÉSTE TEMA DE FLOR DE PIEDRA.
SUERTE AMIGO, DISFRUTEN. (= FACU!!
ESCUCHEN EL TEMA PARA SACAR BIEN EL RASGUIDO
Y VER DONDE VAN LOS RIFF EXACTAMENTE,
AUNQUE CREO QUE AHI ESTÁ CORRECTO.

            
            
Suggest correction
Creating personal tab
Creating personal tab
You can edit any tab online and save it as your Personal.

You can edit, replace or remove any tab part or add personal notes – all changes will be seen only by you.

Personal tabs can be accessed anytime from any device, even offline.
Learn more »
Give kudos to tab author, rate the tab!
1 2 3 4 5
comments
print report bad tab
guest
Wanna post a correction for this tab? Suggest correction