Oops, an error
Loading. Please wait.

Ven A Mí tab

version 1
version 1

Whole song

62 views 1 this week
no commentswrite comment
1 2 3 4 5
3 more votes to show rating
add to favorites
×
Save as Personal and add changes to this tab that will be seen only by you. Learn more ›
×
You can save this tab as Personal to edit and correct it or add notes. All changes will be seen only by you. Learn more »
launch autoscroll
font size
0
reset
how to read this tab
guitar tuner
edit
Autoscroll
slow
fast
+/-
esc
set tempo
stop
INTRO

   A9                       Em                    F
e|------------0----------------------0-----------------------1--------
B| -----0--------0------0-------0------0---0------------1-------1---1-
G|---------2--------2 ------------0------0----------------2-------2---
D|---2------------------------2----------------------3----------------
A|--------------------------------------------------------------------
E|-0------------------------0----------------------1------------------

riff1

   G
e|------3------------------....
B|-----0-------------------....
G|-----------3-2-0---0-----....
D|-----------------3-------....
A|---2---------------------....
E|-3-----------------------....


A9                     Em
Yo te vi llorar cuando nadie te miraba
      F                       G
escondiendo esa lagrima que se te escapaba
 A9                 Em
yo te vi tan triste y tan solito
 D/F#               Dm   D                E
que hubiera dado mi vida por curarte las heridas

CORO:
      A
Ven a mi... (ven a mi...)
        C#m
Te cuidare...  (te cuidareee)
     D
te besare esos ojitos tan dulces
       Dm             D
y calmare la pena que tu alma lleva
               A
por dios ven a mi ... (ven a mi...)
       C#m
te buscare ... (te buscare...)
         D                   Dm
y te amare como nadie en la tierra te amo
       A         E7
ven a mi... ven a mi...


riff1


A9                   Em
Yo se que tendras razones para el amor
 F                       G
pero solo una palabra borrara tu dolor
A9                  Em
tienes que probarme no te vayas
 D/F#                  Dm              D            E
por que estoy lleno de besos y quiero curarte el alma


CORO x2

Y ESO ES TODO  OJALA QUE LES GUSTE MI VERSION
CUALQUIER CORRECCION NO DUDEN EN ESCRIBIR

SALUDOS A UNA NINIA MUY ESPECIAL PARA MI
TKM PAOLITAS
Y A TOA LA GENTE DE NIKO

----------------.
ACORDES         |
________________.
     EADGBe     |
A9   x02200     |
D/F# 300232     |
E7   020100     |
G    320033     |
________________|

            
            
Suggest correction
Creating personal tab
Creating personal tab
You can edit any tab online and save it as your Personal.

You can edit, replace or remove any tab part or add personal notes – all changes will be seen only by you.

Personal tabs can be accessed anytime from any device, even offline.
Learn more »
Give kudos to tab author, rate the tab!
1 2 3 4 5
comments
print report bad tab
guest
Wanna post a correction for this tab? Suggest correction