Oops, an error
Loading. Please wait.

Pista O Señal bass

version 1
version 1

Whole song

by Fluido
17 views 1 this week
no commentswrite comment
1 2 3 4 5
3 more votes to show rating
add to favorites
×
Save as Personal and add changes to this tab that will be seen only by you. Learn more ›
×
You can save this tab as Personal to edit and correct it or add notes. All changes will be seen only by you. Learn more »
launch autoscroll
font size
0
reset
guitar tuner
edit
Autoscroll
slow
fast
+/-
esc
set tempo
stop
INTRO


G|--------------------------------------------------|
D|--------------------333--22-----------------------|
A|------------3h5x------------33-----555------------|
E|-1x-3x--------------------------5------5------3---|
B|------------------------------------------3-5-----|

G|---------------------------------|
D|---------------3h2----------2----|
A|--------3h5x-------3---3-5-------|
E|-1x-3x---------------5--------5--|
B|---------------------------------|


Cada vez que el pulso me tiembla
O Cada vez que el pecho se cierra

G|--------------------------------|
D|--------------------------------|
A|--------3h5x--------------------|
E|-1x-3x--------5/3----1x-3x------|
B|-----------------------------3x-|


Es cada vez que te busco ahí
Y no te encuentro a vos

G|---------------------------------|
D|---------------3h2----------2----|
A|--------3h5x-------3---3-5-------|
E|-1x-3x---------------5--------5--|
B|---------------------------------|


Siento el aire en su inconsistencia
Veo el agua y su transparencia


G|--------------------------------|
D|--------------------------------|
A|--------3h5x--------------------|
E|-1x-3x--------5/3----1x-3x------|
B|-----------------------------3x-|


Veo un mundo rodeándome
Y no te veo a vos no

G|---------------------------------|
D|---------------3h2----------2----|
A|--------3h5x-------3---3-5-------|
E|-1x-3x---------------5--------5--|
B|---------------------------------|


ESTRIBILLO


Dame un a pista o señal
Dame algo que me acerque a tu lugar


G|---------------------------------------------------------|
D|-----------------------------------9h7------------10-----|
A|---5-3-----------------------5---------8-------10----10--|
E|--------5-3----3-5--5---5-8---6x---------6/7-------------|
B|-------------6-------------------------------------------|


Dame una pista o señal
Clara clara

G|------------------------------------------9h10h9-----------|
D|--------------------------------------------------10-------|
A|--5-3-----------3-3--55----5---5---------------------10/8--|
E|-------5-3----3----------3---3---3---5---------------------|
B|------------6----------------------------------------------|


PUENTE

G|--------------------------------------------------|
D|--------------------333--22-----------------------|
A|------------3h5x------------33-----555------------|
E|-1x-3x--------------------------5------5------3---|
B|------------------------------------------3-5-----|

G|---------------------------------|
D|---------------3h2----------2----|
A|--------3h5x-------3---3-5-------|
E|-1x-3x---------------5--------5--|
B|---------------------------------|


Ya no me excedo más con frecuencia
Casi supere mi abstinencia


G|--------------------------------|
D|--------------------------------|
A|--------3h5x--------------------|
E|-1x-3x--------5/3----1x-3x------|
B|-----------------------------3x-|


Dejo todo por darte más
Y no te tengo a vos


G|---------------------------------|
D|---------------3h2----------2----|
A|--------3h5x-------3---3-5-------|
E|-1x-3x---------------5--------5--|
B|---------------------------------|


Siento el aire en su inconsistencia
Veo el agua y su transparencia


G|--------------------------------|
D|--------------------------------|
A|--------3h5x--------------------|
E|-1x-3x--------5/3----1x-3x------|
B|-----------------------------3x-|


Veo un mundo rodeándome
Y no te veo a vos no


G|---------------------------------|
D|---------------3h2----------2----|
A|--------3h5x-------3---3-5-------|
E|-1x-3x---------------5--------5--|
B|---------------------------------|


ESTRIBILLO


Dame un a pista o señal
Dame algo que me acerque a tu lugar


G|---------------------------------------------------------|
D|-----------------------------------9h7------------10-----|
A|---5-3-----------------------5---------8-------10----10--|
E|--------5-3----3-5--5---5-8---6x---------6/7-------------|
B|-------------6-------------------------------------------|


Dame una pista o señal
Clara quiero saber a donde vas


G|--------------------------------------------------------|
D|--------------------------------------------------------|
A|-5-3-----------3-3--55-----5---5-----1x-3x--------------|
E|------5-3----3-----------3---3---3----------------------|
B|-----------6--------------------------------------------|


Dame una pista o señal
No hay nada que me acerque un poco más


G|-----------------------------------|
D|-----------------------------------|
A|-5-3--------------------5--3x-4x---|
E|-----5-3-----3-5--5--5-8-----------|
B|----------6------------------------|


Dame una pista o señal
Clara quiero saber a donde estas


G|--------------------------------------------------------|
D|--------------------------------------------------------|
A|-5-3-----------3-3--55-----5---5-----1x-3x--------------|
E|------5-3----3-----------3---3---3----------------------|
B|-----------6--------------------------------------------|


SOLO DE BAJO


G|------------------------------5h7-7---10h9----------|
D|-------------------5/7/5--7h8--------------10-------|
A|----5---5h3------5-----------------------------10/8-|
E|--3---3-----3---------------------------------------|
B|----------------------------------------------------|


A donde estas y ver te hoy

G|------------------------5(harmonico)---|
D|----------7-------7--8-----------------|
A|--------7-------7----------------------|
E|---5----------5------------------------|
B|---------------------------------------|


G|---------------------------|
D|-------------333-22--------|
A|-------3h5x---------2------|
E|-1x-3x------------------5x-|
B|---------------------------|

DESPUES DEL CORTE SIGUE CON EL ESTRIBILLO


bueno esa es la base,supongo q esta bien

las ¨x¨ despues de los numeros es q sigan la tonica al ritmo


bueno eso es todo alguna duda pregunten


l_casla73@


CONXIENCIA!!!!!!!!!!!!

            
            
Suggest correction
Creating personal tab
Creating personal tab
You can edit any tab online and save it as your Personal.

You can edit, replace or remove any tab part or add personal notes – all changes will be seen only by you.

Personal tabs can be accessed anytime from any device, even offline.
Learn more »
Give kudos to tab author, rate the tab!
1 2 3 4 5
comments
print report bad tab
guest
Wanna post a correction for this tab? Suggest correction