Oops, an error
Loading. Please wait.

Hipnotízame tab

version 10
version 10
by Fobia
29 views 1 this week
no commentswrite comment
1 2 3 4 5
3 more votes to show rating
add to favorites
×
Save as Personal and add changes to this tab that will be seen only by you. Learn more ›
×
You can save this tab as Personal to edit and correct it or add notes. All changes will be seen only by you. Learn more »
launch autoscroll
font size
0
reset
how to read this tab
guitar tuner
edit
Autoscroll
slow
fast
+/-
esc
set tempo
stop
Esta es la version Acustica de Hipnotizame,
la cual aparece en el concierto de sus 20 años.
En algunas partes se tocan los acordes y no se puntean.
Escuchen la cancion,sabran a lo que me refiero, disfruten.

Intro
----------------------------------|--------------------------------------|
----------------------0-----0-----|--------------------------------------|
----0-------0-------7-----7---7---|--------0-----------------0-----------|
------7---7---7---5-----4-------0-|----4---------4---4---4---------4---4-|
--5-----4-------0-----------------|--2---2---(2)---2---2---2---(2)---2---|
----------------------------------|--------------------------------------|


----------------------------------|--------------------------------------|
----------------------0-----0-----|--------------------------------------|
----0-------0-------7-----7---7---|--------0-----------------0-----------|
------7---7---7---5-----4-------0-|----4---------4---4---4---------4---4-|
--5-----4-------0-----------------|--2---2---(2)---2---2---2---(2)---2---|
----------------------------------|--------------------------------------|

Verso
----------------------------------|----------------------------------|
----------------------0-----0-----|----------------------------------|
----0-------0-------7-----7---7---|----------------------------------|
------7---7---7---5-----4-------0-|------------4-----------5---------|
--5-----4-------0-----------------|----4---4-------4---5-------5---0-|
----------------------------------|--2---2---2---2---3---3---3---3---|


----------------------------------|--------------------------------------|
----------------------0-----0-----|--------------------------------------|
----0-------0-------7-----7---7---|--------0-----------------0-----------|
------7---7---7---5-----4-------0-|----4---------4---4---4---------4---4-|
--5-----4-------0-----------------|--2---2---(2)---2---2---2---(2)---2---|
----------------------------------|--------------------------------------|


----------------------------------|----------------------------------|
----------------------0-----0-----|----------------------------------|
----0-------0-------7-----7---7---|----------------------------------|
------7---7---7---5-----4-------0-|------------4-----------5---------|
--5-----4-------0-----------------|----4---4-------4---5-------5---0-|
----------------------------------|--2---2---2---2---3---3---3---3---|

Coro
--------0--------------2--------|--------0--------------1--------|
--------1--1---0-----3-3--3---0-|--------1--------------1--1---0-|
------0------0-----2--------2---|------2----2---2-----2------2---|
----2------------0--------------|----2--------2-----3------------|
--3-----------------------------|--0-----------------------------|
--------------------------------|-----------------1--------------|


--------0-----------------------|--------3--------------3--------|
--------1--1---1-------3--------|--------0--0---0-------0--0-----|
------0------0-------0----0---0-|-------------0------------------|
----2--------------2--------2---|------0--------------0----------|
--3--------------3--------------|----2--------------2----------0-|
--------------------------------|--3--------------3----------3---|

Riff
----------------------------------|--------------------------------------|
----------------------0-----0-----|--------------------------------------|
----0-------0-------7-----7---7---|--------0-----------------0-----------|
------7---7---7---5-----4-------0-|----4---------4---4---4---------4---4-|
--5-----4-------0-----------------|--2---2---(2)---2---2---2---(2)---2---|
----------------------------------|--------------------------------------|

Verso
----------------------------------|--------------------------------------|
----------------------0-----0-----|--------------------------------------|
----0-------0-------7-----7---7---|--------0-----------------0-----------|
------7---7---7---5-----4-------0-|----4---------4---4---4---------4---4-|
--5-----4-------0-----------------|--2---2---(2)---2---2---2---(2)---2---|
----------------------------------|--------------------------------------|


----------------------------------|----------------------------------|
----------------------0-----0-----|----------------------------------|
----0-------0-------7-----7---7---|----------------------------------|
------7---7---7---5-----4-------0-|------------4-----------5---------|
--5-----4-------0-----------------|----4---4-------4---5-------5---0-|
----------------------------------|--2---2---2---2---3---3---3---3---|


----------------------------------|--------------------------------------|
----------------------0-----0-----|--------------------------------------|
----0-------0-------7-----7---7---|--------0-----------------0-----------|
------7---7---7---5-----4-------0-|----4---------4---4---4---------4---4-|
--5-----4-------0-----------------|--2---2---(2)---2---2---2---(2)---2---|
----------------------------------|--------------------------------------|


----------------------------------|----------------------------------|
----------------------0-----0-----|----------------------------------|
----0-------0-------7-----7---7---|----------------------------------|
------7---7---7---5-----4-------0-|------------4-----------5---------|
--5-----4-------0-----------------|----4---4-------4---5-------5---0-|
----------------------------------|--2---2---2---2---3---3---3---3---|

Coro
--------0--------------2--------|--------0--------------1--------|
--------1--1---0-----3-3--3---0-|--------1--------------1--1---0-|
------0------0-----2--------2---|------2----2---2-----2------2---|
----2------------0--------------|----2--------2-----3------------|
--3-----------------------------|--0-----------------------------|
--------------------------------|-----------------1--------------|


--------0--------0----0--------|--------3--------------3--------|
--------1--1---1-3----1--------|--------0--0---0-------0--0---0-|
------0------0------0----0---0-|-------------0--------------0---|
----2----------------------2---|------0--------------0----------|
--3----------------------------|----2--------------2------------|
-------------------------------|--3--------------3--------------|


--------0--------------2--------|--------0--------------1--------|
--------1--1---0-----3-3--3---0-|--------1--------------1--1---0-|
------0------0-----2--------2---|------2----2---2-----2------2---|
----2------------0--------------|----2--------2-----3------------|
--3-----------------------------|--0-----------------------------|
--------------------------------|-----------------1--------------|


--------0--------0----0--------|--------3--------------3--------|
--------1--1---1-3----1--------|--------0--0---0-------0--0-----|
------0------0------0----0---0-|-------------0------------------|
----2----------------------2---|------0--------------0----------|
--3----------------------------|----2--------------2----------0-|
-------------------------------|--3--------------3----------3---|

Riff
---------------------------------------|
---------------------------------------|
-------------10-10-10-10-10------------|
--7-7-7-----10-10-10-10-10--10-10-10--|
--7-7-7------8--8--8--8--8--10-10-10--|
--5-5-5----------------------8--8--8--|


----------------------------------------|--------------------------------|
----------------------------------------|--------------------------------|
-------------10-10-10-10-10-------------|--------------------------------|
--7-7-7-----10-10-10-10-10--10-10-10-9-|--10-10-10------2-2-2-2-2--3-3-3-|
--7-7-7------8--8--8--8--8--10-10-10-9-|--10-10-10------2-2-2-2-2--3-3-3-|
--5-5-5----------------------8--8--8-7-|---8--8--8------0-0-0-0-0--1-1-1-|


--------0--------------2--------|--------0--------------1--------|
--------1--1---0-----3-3--3---0-|--------1--------------1--1---0-|
------0------0-----2--------2---|------2----2---2-----2------2---|
----2------------0--------------|----2--------2-----3------------|
--3-----------------------------|--0-----------------------------|
--------------------------------|-----------------1--------------|


--------0--------0----0--------|--------3--------------3--------|
--------1--1---1-3----1--------|--------0--0---0-------0--0---0-|
------0------0------0----0---0-|-------------0--------------0---|
----2----------------------2---|------0--------------0----------|
--3----------------------------|----2--------------2------------|
-------------------------------|--3--------------3--------------|

Verso
--------0--------------2--------|--------0--------------1--------|
--------1--1---0-----3-3--3---0-|--------1--------------1--1---0-|
------0------0-----2--------2---|------2----2---2-----2------2---|
----2------------0--------------|----2--------2-----3------------|
--3-----------------------------|--0-----------------------------|
--------------------------------|-----------------1--------------|


--------0--------0----0--------|--------3--------------3--------|
--------1--1---1-3----1--------|--------0--0---0-------0--0---0-|
------0------0------0----0---0-|-------------0--------------0---|
----2----------------------2---|------0--------------0----------|
--3----------------------------|----2--------------2------------|
-------------------------------|--3--------------3--------------|


--------0--------------2--------|--------0--------------1--------|
--------1--1---0-----3-3--3---0-|--------1--------------1--1---0-|
------0------0-----2--------2---|------2----2---2-----2------2---|
----2------------0--------------|----2--------2-----3------------|
--3-----------------------------|--0-----------------------------|
--------------------------------|-----------------1--------------|


--------0--------0----0--------|--------3--------------3--------|
--------1--1---1-3----1--------|--------0--0---0-------0--0---0-|
------0------0------0----0---0-|-------------0--------------0---|
----2----------------------2---|------0--------------0----------|
--3----------------------------|----2--------------2------------|
-------------------------------|--3--------------3--------------|

Outro
--------0--------------3--------|--------0--------------3--------|
--------1--1---0-------0--0---0-|--------1--1---0-------0--0---0-|
------0------0--------------0---|------0------0--------------0---|
----2----------------0----------|----2----------------0----------|
--3----------------2------------|--3----------------2------------|
-----------------3--------------|-----------------3--------------|


--------0--------------3--------|-------------------||
--------1--1---0-------0--0---0-|--1----------------||
------0------0--------------0---|--0----------------||
----2----------------0----------|--2----------------||
--3----------------2------------|--3----------------||
-----------------3--------------|-------------------||

            
            
Suggest correction
Creating personal tab
Creating personal tab
You can edit any tab online and save it as your Personal.

You can edit, replace or remove any tab part or add personal notes – all changes will be seen only by you.

Personal tabs can be accessed anytime from any device, even offline.
Learn more »
Give kudos to tab author, rate the tab!
1 2 3 4 5
comments
print report bad tab
guest
Wanna post a correction for this tab? Suggest correction