Oops, an error
Loading. Please wait.

Revolución Sin Manos bass

version 1
version 1

Whole song

Interactive

by Fobia
102 views 1 this week
no commentswrite comment
1 2 3 4 5
3 more votes to show rating
add to favorites
×
Save as Personal and add changes to this tab that will be seen only by you. Learn more ›
×
You can save this tab as Personal to edit and correct it or add notes. All changes will be seen only by you. Learn more »
launch autoscroll
font size
0
reset
guitar tuner
edit
Autoscroll
slow
fast
+/-
esc
set tempo
stop
Explicación de la tablatura

/  : Slay up
  : Slay down
x  : Muted note
h  : Hammer on
p  : Pull off
*  : Segmentos de letra como guia

Nota 1: Casi toda la cancion esta en semicorcheas, la velocidad
        del metronomo es de 112 bpm la negra, aproximadamente.


'El bajo entra con el fill de la bateria en el 3er compas'.


[Intro]

    E
G|--------------------------------|--------------------------------|
D|--------------------------------|--------------------------------|
A|--------------------------------|-------------5h7-----5h7--5-----|
E|--0-----------------------------|--------5h7------5h7---------7--|


G|--------------------------------|--------------------------------|
D|--------------------------------|--------------------------------|
A|------------5h7------5h7--5-----|------------5h7------5h7--5-----|
E|--0--0--5h7-----7--7---------7--|--0--0--5h7-----7--7---------7--|


G|--------------------------------|--------------------------------|
D|--------------------------------|--------------------------------|
A|------------5h7------5h7--5-----|------------5h7------5h7--5-----|
E|--0--0--5h7-----7--7---------7--|--0--0--5h7-----7--7---------7--|

   C#m                               A
G|--------------------------------|--------------------------------|
D|--------------------------------|--------------------------------|
A|--4---4---2---------------------|---------4--4--5--5--6--7--5----|
E|--------------0---2---4------4--|--5---5-----------------------7-|

    E
G|--------------------------------|--------------------------------|
D|--------------------------------|--------------------------------|
A|------------5h7------5h7--5-----|------------5h7-----------------|
E|--0--0--5h7-----7--7---------7--|--0--0--5h7---------------------|


'La estrofa 1 y 2 se tocan exactamente igual por eso solo la escribo
 una vez'


[Estrofa 1 & 2]

    E
G|--------------------------------|--------------------------------|
D|--------------------------------|--------------------------------|
A|------------5h7------5h7--5-----|------------5h7------5h7--5-----|
E|--0--0--5h7-----7--7---------7--|--0--0--5h7-----7--7---------7--|
   *Despues de tanto correr...


G|--------------------------------|--------------------------------|
D|--------------------------------|--------------------------------|
A|------------5h7------5h7--5-----|------------5h7------5h7--5-----|
E|--0--0--5h7-----7--7---------7--|--0--0--5h7-----7--7---------7--|


   C#m                               A
G|--------------------------------|--------------------------------|
D|--------------------------------|--------------------------------|
A|--4---4---2---------------------|---------4--4--5--5--6--7--5----|
E|--------------0---2---4------4--|--5---5-----------------------7-|


    E
G|--------------------------------|--------------------------------||
D|--------------------------------|--------------------------------||
A|------------5h7------5h7--5-----|------------5h7------5h7--5-----||
E|--0--0--5h7-----7--7---------7--|--0--0--5h7-----7--7---------7--||


    E
G|--------------------------------|--------------------------------|
D|--------------------------------|--------------------------------|
A|------------5h7------5h7--5-----|------------5h7------5h7--5-----|
E|--0--0--5h7-----7--7---------7--|--0--0--5h7-----7--7---------7--|
   *Despues de tanto escribir...


G|--------------------------------|--------------------------------|
D|--------------------------------|--------------------------------|
A|------------5h7------5h7--5-----|------------5h7------5h7--5-----|
E|--0--0--5h7-----7--7---------7--|--0--0--5h7-----7--7---------7--|


   C#m                               A
G|--------------------------------|--------------------------------|
D|--------------------------------|--------------------------------|
A|--4---4---2---------------------|---------4--4--5--5--6--7--5----|
E|--------------0---2---4------4--|--5---5-----------------------7-|


    E
G|--------------------------------|--------------------------------|
D|--------------------------------|--------------------------------|
A|------------5h7------5h7--5-----|------------5h7----------------|
E|--0--0--5h7-----7--7---------7--|--0--0--5h7---------5 / 12-----|


[Coro]

    E             A                  D             A
G|--------------------------------|--------------------------------|
D|--------------------------------|--------------------------------|
A|--7-------7---------------------|--5-------5---------------------|
E|----------------5-5-5-5-5-5-5---|----------------5-5-5-5-5-5-5---|
  *Reeevolucion...

    E             A                  D             A
G|--------------------------------|--------------------------------|
D|--------------------------------|--------------------------------|
A|--7-------7---------------------|--5-------5---------------------|
E|----------------5-5-5-5-5-5-5---|----------------5-5-5-5-5-5-5---|


   C#m            A                 C#m            A
G|--------------------------------|--------------------------------|
D|--------------------------------|--------------------------------|
A|--4-------4---------------------|--4-------4---------------------|
E|----------------5-5-5-5-5-5-5---|----------------5-5-5-5-5-5-5---|


   C#m            A                  E
G|--------------------------------|--------------------------------|
D|--------------------------------|--------------------------------|
A|--4-------4---------------------|------------5h7------5h7--5-----|
E|----------------5-5-5-5-5-5-5---|--0--0--5h7-----7--7---------7--|


G|--------------------------------|
D|--------------------------------|
A|------------5h7-----------------|
E|--0--0--5h7---------------------|


[Puente]

    E
G|--------------------------------|--------------------------------|
D|--------------------------------|--------------------------------|
A|------------5h7------5h7--5-----|------------5h7------5h7--5-----|
E|--0--0--5h7-----7--7---------7--|--0--0--5h7-----7--7---------7--|


G|--------------------------------|--------------------------------|
D|--------------------------------|--------------------------------|
A|------------5h7------5h7--5-----|------------5h7------5h7--5-----|
E|--0--0--5h7-----7--7---------7--|--0--0--5h7-----7--7---------7--|


[Estrofa 2]  'Igual a estrofa 1'.


[Coro]


    E             A                  D             A
G||--------------------------------|--------------------------------|
D||--------------------------------|--------------------------------|
A||--7-------7---------------------|--5-------5---------------------|
E||----------------5-5-5-5-5-5-5---|----------------5-5-5-5-5-5-5---|
  *Reeevolucion...

    E             A                  D             A
G|--------------------------------|--------------------------------|
D|--------------------------------|--------------------------------|
A|--7-------7---------------------|--5-------5---------------------|
E|----------------5-5-5-5-5-5-5---|----------------5-5-5-5-5-5-5---|


   C#m            A                 C#m            A
G|--------------------------------|--------------------------------|
D|--------------------------------|--------------------------------|
A|--4-------4---------------------|--4-------4---------------------|
E|----------------5-5-5-5-5-5-5---|----------------5-5-5-5-5-5-5---|


   C#m            A
G|--------------------------------||
D|--------------------------------|| Tocar dos veces
A|--4-------4---------------------||
E|----------------5-5-5-5-5-5-5---||


    E
G|--------------------------------|--------------------------------|
D|--------------------------------|--------------------------------|
A|------------5h7------5h7--5-----|------------5h7-----------------|
E|--0--0--5h7-----7--7---------7--|--0--0--5h7---------------------|


'En esta parte de la cancion el bajo entra al final de 4to compas
 las notas son redondas'.


[Pausa Guitarra]

                               E
G|--------------------------------|--------------------------------|
D|--------------------------------|--------------------------------|
A|-----------------------------7/-|--14----------------------------|
E|--------------------------------|--------------------------------|


G|--------------------------------|--16----------------------------|
D|--------------------------------|--------------------------------|
A|--14----------------------------|--------------------------------|
E|--------------------------------|--------------------------------|


G|--16----------------------------|--------------------------------|
D|--------------------------------|--------------------------------|
A|--------------------------------|----7--7--7--7---7--7--7--7-----|
E|--------------------------------|--------------------------------|


[Coro]


    E             A                  D             A
G||--------------------------------|--------------------------------|
D||--------------------------------|--------------------------------|
A||--7-------7---------------------|--5-------5---------------------|
E||----------------5-5-5-5-5-5-5---|----------------5-5-5-5-5-5-5---|
  *Reeevolucion...

    E             A                  D             A
G|--------------------------------|--------------------------------|
D|--------------------------------|--------------------------------|
A|--7-------7---------------------|--5-------5---------------------|
E|----------------5-5-5-5-5-5-5---|----------------5-5-5-5-5-5-5---|


   C#m            A                 C#m            A
G|--------------------------------|--------------------------------|
D|--------------------------------|--------------------------------|
A|--4-------4---------------------|--4-------4---------------------|
E|----------------5-5-5-5-5-5-5---|----------------5-5-5-5-5-5-5---|


   C#m            A
G|--------------------------------||
D|--------------------------------|| Tocar cuatro veces
A|--4-------4---------------------||
E|----------------5-5-5-5-5-5-5---||


[Outro]

    E
G|--------------------------------|--------------------------------|
D|--------------------------------|--------------------------------|
A|------------5h7------5h7--5-----|------------5h7------5h7--5-----|
E|--0--0--5h7-----7--7---------7--|--0--0--5h7-----7--7---------7--|
  *huuuuuuuuuuuuuuuuuuuuuuuuooooooooooooooooooooooooo...

    E
G|--------------------------------|--------------------------------|
D|--------------------------------|--------------------------------|
A|------------5h7------5h7--5-----|------------5h7-----------------|
E|--0--0--5h7-----7--7---------7--|--0--0--5h7---------------------|


Estructura:

[Intro]
[Estrofa 1]
[Coro]
[Puente]
[Estrofa 2]
[Coro]
[Pausa guitarra]
[Coro]
[Outro]


Nota: Para que la cancion te suene bien debes escucharla muchas veces
      para que captes la velocidad del bajo en las estrofas.


Comentarios y sugerencias: mandos22@
Suggest correction
Creating personal tab
Creating personal tab
You can edit any tab online and save it as your Personal.

You can edit, replace or remove any tab part or add personal notes – all changes will be seen only by you.

Personal tabs can be accessed anytime from any device, even offline.
Learn more »
Give kudos to tab author, rate the tab!
1 2 3 4 5
comments
print report bad tab
guest
Wanna post a correction for this tab? Suggest correction