Oops, an error
Loading. Please wait.

Autonomía tab

version 1
version 1

Whole song

13 views 1 this week
no commentswrite comment
1 2 3 4 5
3 more votes to show rating
add to favorites
×
Save as Personal and add changes to this tab that will be seen only by you. Learn more ›
×
You can save this tab as Personal to edit and correct it or add notes. All changes will be seen only by you. Learn more »
launch autoscroll
font size
0
reset
how to read this tab
guitar tuner
edit
Autoscroll
slow
fast
+/-
esc
set tempo
stop
Comienza con el intro: (varias veces)

e----------------------------------------
b----------------------------------------
g------5-4---5-4-----5-4-----5-4-----5-4-
d----------5------5-------5-------5------
a----------------------------------------
E----------------------------------------

(varias veces)

Segunda Guitarra: F5 - G5 - A5 - G5 x3 (Muteado y luego normal)

                                           E5
Nuestra situacion siempre esta hasta las webas

e----------------------------------------
b----------------------------------------
g------4-4-5-4-4-4-4-4-4-4-4-5-4-5/7-5v---
d----------------------------------------
a----------------------------------------
E----------------------------------------

A5                                 E5
que nuestro pais solo sobra violencia

e----------------------------------------
b--5-6-5-5-5-5-5-5-6-5-6/7-6v-------------
g----------------------------------------
d----------------------------------------
a----------------------------------------
E----------------------------------------

F5                                 C5
y a los 3 poderes les echas la culpa

e---------------------------------------
b---------------------------------------
g--5-5---7-7---9-9--10-9-5v-------------
d--x-x---x-x---x-x---x-x--x-------------
a--3-3---5-5---7-7---8-7-3v-------------
E---------------------------------------

F5                                 E5
que no haya dinero y que falte cultura!!!

A5                                 E5
que los presidentes son unos ladrones

A5                                 E5
los jueces ministros y los monseñores

F5                               C5
y pasas la vida quejandote de eso

e---------------------------------------
b---------------------------------------
g--5-5---7-7---9-9--10-9-5v-------------
d--x-x---x-x---x-x---x-x--x-------------
a--3-3---5-5---7-7---8-7-3v-------------
E---------------------------------------

F5                               E5
Y cada quincena te chupas el sueldo!!!!

D5           C5                 G5                  F5
y buscas una solucion inmediata pa todos tus duros problemas

D5           C5                 G5                  F5
tal veZ debas ir al palacio y matar a todos esos hijos de perra

F5    E5 F5    E5 F5    E5        F5                      E5
Y fuera! Y fuera! Y fuera mierda! y nunca te vas a saber gobernar

e----------------------------------------
b----------------------------------------
g------5-4---5-4-----5-4-----5-4-----5-4-
d----------5------5-------5-------5------
a----------------------------------------
E----------------------------------------

(varias veces)

Segunda Guitarra: F5 - G5 - A5 - G5

                                     E5
destruye el sistema y comienza de nuevo

e----------------------------------------
b----------------------------------------
g------4-4-5-4-4-4-4-4-4-4-4-5-4-5/7-5v--
d----------------------------------------
a----------------------------------------
E----------------------------------------

A5                                  E5
el cambio esta en ti y no en el gobierno

e----------------------------------------
b--5-6-5-5-5-5-5-5-6-5-6/7-6v------------
g----------------------------------------
d----------------------------------------
a----------------------------------------
E----------------------------------------

F5                              C5
y si estas abajo mira para arriba

e---------------------------------------
b---------------------------------------
g--5-5---7-7---9-9--10-9-5v-------------
d--x-x---x-x---x-x---x-x--x-------------
a--3-3---5-5---7-7---8-7-3v-------------
E---------------------------------------

F5                               E5
y si estas arriba mira para abajo,carajo!!

A5                            E5
enseña a tus hijos buenos valores

A5                            E5
tu ejemplo es la clave de sus convicciones

F5                            C5
respira profundo y piensa de nuevo

e---------------------------------------
b---------------------------------------
g--5-5---7-7---9-9--10-9-5v-------------
d--x-x---x-x---x-x---x-x--x-------------
a--3-3---5-5---7-7---8-7-3v-------------
E---------------------------------------

F5                                    E5
que la historia peruana la escribe su pueblo!!!

D5           C5                 G5                  F5
y buscas una solucion inmediata pa todos tus duros problemas

D5           C5                 G5                  F5
tal veZ debas ir al palacio y matar a todos esos hijos de perra

F5    E5 F5    E5 F5    E5        F5                      E5
Y fuera! Y fuera! Y fuera mierda! y nunca te vas a saber gobernar


e----------------------------------------
b----------------------------------------
g------5-4---5-4-----5-4-----5-4-----5-4-
d----------5------5-------5-------5------
a----------------------------------------
E----------------------------------------

(varias veces)

Segunda Guitarra: F5 - G5 - A5 - G5

FINAL: (cuadrar la segunda guitarra con estos acordes F5 - G5 - A5 - G5 )

e---------------------------------------------------------------
b---------------------------------------------------------------
g------5-4---5-4-----5-4-----5-4-----5-4---5v-5/7-7v-7/9-9/10/9v
d----------5------5-------5-------5-----------------------------
a---------------------------------------------------------------
E---------------------------------------------------------------


e-------------------------------------------------------
b-------------------------------------------------------
g------5-4---5-4-----5-4-----5-4-----5-4-5v-5/7-7v-7/9v-
d----------5------5-------5-------5---------------------
a-------------------------------------------------------
E-------------------------------------------------------

            
            
Suggest correction
Creating personal tab
Creating personal tab
You can edit any tab online and save it as your Personal.

You can edit, replace or remove any tab part or add personal notes – all changes will be seen only by you.

Personal tabs can be accessed anytime from any device, even offline.
Learn more »
Give kudos to tab author, rate the tab!
1 2 3 4 5
comments
print report bad tab
guest
Wanna post a correction for this tab? Suggest correction