Oops, an error
Loading. Please wait.

Una Vez Más tab

version 2
version 2

Whole song

22 views 1 this week
no commentswrite comment
1 2 3 4 5
3 more votes to show rating
add to favorites
×
Save as Personal and add changes to this tab that will be seen only by you. Learn more ›
×
You can save this tab as Personal to edit and correct it or add notes. All changes will be seen only by you. Learn more »
launch autoscroll
font size
0
reset
how to read this tab
guitar tuner
edit
Autoscroll
slow
fast
+/-
esc
set tempo
stop
La SkuxE Y MuY WEnA SiN MaS Q DecIR...
ErrOrEs TiRen PaLo NumAs AlAOZ....

B5...

B5 G5 F#5 E5
B5 G5 E5 E5

aka entra kon la teba y la demas bulla

B5 G5 F#5 E5
B5 G5 E5 E5

B5          G5              F#5 E5
  Una vez mas estoy en el hueco
B5             G5       E5 E5
  siempre tiene que pasar
B5          G5              F#5 E5
  una vez mas y estoy arto de esto
B5             G5       E5 E5
  eso me pasa por irracional


    tal vez hoy dia no debi salir
   D8                        F#8    E8* D8 C#8 D8
e|-----------------------------------------------|
B|-----------------------------------------------|
G|-777777--------------------111111--10--7--6--7-|
D|-XXXXXX--------------------X-X-X---X---X--X--X-|
A|-555555--------------------9-9-9---8---5--4--5-|
E|-----------------------------------------------|

    tal vez nunca mas volvere a salir
   D8                        F#8*   E8* D8 C#8
e|--------------------------------------------|
B|--------------------------------------------|
G|-777777--------------------111111--9--7--6--|
D|-XXXXXX--------------------X-X-X---X--X--X--|
A|-555555--------------------9-9-9---7--5--4--|
E|--------------------------------------------|

B5            G5                 F#5      E5
  quiero saber si la tienda esta abierta
B5             G5       E5 E5
  necesito un trago para pensar
B5            G5                F#5   E5
  yo la verdad estoy arto de esto
B5             G5       E5 E5
  es por estar en el mismo lugar


    sera por ser siempre el mismo huevon
   D8                        F#8    E8* D8 C#8 D8
e|-----------------------------------------------|
B|-----------------------------------------------|
G|-777777--------------------111111--10--7--6--7-|
D|-XXXXXX--------------------X-X-X---X---X--X--X-|
A|-555555--------------------9-9-9---8---5--4--5-|
E|-----------------------------------------------|

las mismas caras a mi alrededor
  D8                        F#8*   E8* D8 C#8
e|--------------------------------------------|
B|--------------------------------------------|
G|-777777--------------------111111--9--7--6--|
D|-XXXXXX--------------------X-X-X---X--X--X--|
A|-555555--------------------9-9-9---7--5--4--|
E|--------------------------------------------|

F#5                                 B5 G5 G5 G5
y hoy dia tenia que encontrarte con el
D5                     A5            G5
hijo de puta, que se muera y tu tambien
F#5                           B5 G5 G5 G5
vete a la mierda maldita basura
D5           A5        G5            F#5
no quiero verte nunca mas       (nunca maaas)


G5                         F#5
  porque no vales ni mierda
     (STO VA D FONDO SKUXENLA)
  e|----------------------------------|
  B|----------------------------------|
  G|---------------------6-7-9-7-6-7~-|
  D|---------------------X-X-X-X-X-X~-|
  A|---------------------4-5-7-5-4-5~-|
  E|----------------------------------|
G5                        F#5
  puedo tener muchas perras
     (STO VA D FONDO SKUXENLA)
  e|----------------------------------|
  B|----------------------------------|
  G|---------------------6-7-9-7-6-7~-|
  D|---------------------X-X-X-X-X-X~-|
  A|---------------------4-5-7-5-4-5~-|
  E|----------------------------------|

D5          A5                  G5
  puedo botar la basura a la calle
D5          A5                  G5
  puedo vivir sin juntarme con nadie
      F#5 F#5 F#5 F#5
con nadie mas          una vez mas!!!

Solo:
  B5     G5     F#5       B5     G5     E5  E5
e|--------------------------------------7----7---|
B|-7-----10-8-7-----------7----10-8-7--10b--10b--|
G|--10-8--------6~-7-9-----10-8------------------|
D|-----------------------------------------------|
A|-----------------------------------------------|
E|-----------------------------------------------|

  B5     G5    F#5       B5      G5     E5  E5
e|-12-10-9------------10-9--------------------------5--5--7~~--|
B|---------12-8-8-8--------12-10-7-7-7--7--7--7--7--8b-8b-10b--|
G|--------------------------------------9b-9b-9b-9b------------|
D|-------------------------------------------------------------|
A|-------------------------------------------------------------|
E|-------------------------------------------------------------|


Quiero dormirme tranquilo esta noche   |
mientras escriba otra puta cancion     |(sta wada va akompañada
le cambiaria de nombre a esta historia | x el bajo y la teba)
y asi pensar que es la de otro huevon  |


   para sentirme menos hasta el culo
   D8                        F#8    E8* D8 C#8 D8
e|-----------------------------------------------|
B|-----------------------------------------------|
G|-777777--------------------111111--10--7--6--7-|
D|-XXXXXX--------------------X-X-X---X---X--X--X-|
A|-555555--------------------9-9-9---8---5--4--5-|
E|-----------------------------------------------|

   para sentirme asi un poco mejor
  D8                        F#8*   E8* D8 C#8
e|--------------------------------------------|
B|--------------------------------------------|
G|-777777--------------------111111--9--7--6--|
D|-XXXXXX--------------------X-X-X---X--X--X--|
A|-555555--------------------9-9-9---7--5--4--|
E|--------------------------------------------|

F#5                                 B5 G5
y hoy dia tenia que encontrarte con el
D5                     A5            G5
hijo de puta, que se muera y tu tambien
F#5                           B5 G5 G5 G5
vete a la mierda maldita basura
D5           A5        G5            F#5
no quiero verte nunca mas       (nunca maaas)


G5                         F#5
  porque no vales ni mierda
     (STO VA D FONDO SKUXENLA)
  e|----------------------------------|
  B|----------------------------------|
  G|---------------------6-7-9-7-6-7~-|
  D|---------------------X-X-X-X-X-X~-|
  A|---------------------4-5-7-5-4-5~-|
  E|----------------------------------|
G5                        F#5
  puedo tener muchas perras
    (STO VA D FONDO SKUXENLA)
  e|----------------------------------|
  B|----------------------------------|
  G|---------------------6-7-9-7-6-7~-|
  D|---------------------X-X-X-X-X-X~-|
  A|---------------------4-5-7-5-4-5~-|
  E|----------------------------------|

D5          A5                  G5
  puedo botar la basura a la calle
D5          A5                  G5
  puedo vivir sin juntarme con nadie
      F#5 F#5 F#5 F#5           B5
con nadie mas          una vez mas!!!


SpEro LeS GusT!!! Y StA Va PaRa Mi KolEGA JAjajAj
Va Pa La KomPeTenCiA!!! JEjeje Pa ToDoS Los AmAnTs D
LA MusIkA!!!!!!!!!!!!!!!!!!!!!!!!!!!!!!!!!!!!!!!!!!

X) X) X) X) X) X) X) X) X) X) X) X) X) X) X) X) X) X) X) X) X)
X) X) X) X) X) X) X) X) X) X) X) X) X) X) X) X) X) X) X) X) X)
X) X) X) X) X) X) X) X) X) X) X) X) X) X) X) X) X) X) X) X) X)
X) X) X) X) X) X) X) X) X) X) X) X) X) X) X) X) X) X) X) X) X)
X) X) X) X) X) X) X) X) X) X) X) X) X) X) X) X) X) X) X) X) X)
X) X) X) X) X) X) X) X) X) X) X) X) X) X) X) X) X) X) X) X) X)

            
            
Suggest correction
Creating personal tab
Creating personal tab
You can edit any tab online and save it as your Personal.

You can edit, replace or remove any tab part or add personal notes – all changes will be seen only by you.

Personal tabs can be accessed anytime from any device, even offline.
Learn more »
Give kudos to tab author, rate the tab!
1 2 3 4 5
comments
print report bad tab
guest
Wanna post a correction for this tab? Suggest correction