Oops, an error
Loading. Please wait.

Te Quiero Más tab

version 1
version 1

Whole song

11 views 3 this week
no commentswrite comment
1 2 3 4 5
3 more votes to show rating
add to favorites
×
Save as Personal and add changes to this tab that will be seen only by you. Learn more ›
×
You can save this tab as Personal to edit and correct it or add notes. All changes will be seen only by you. Learn more »
launch autoscroll
font size
0
reset
how to read this tab
guitar tuner
edit
Autoscroll
slow
fast
+/-
esc
set tempo
stop
Intro:
C F C G   
                                                                
E||----------0-0------1--|-------------0-0-------|----------0--0------1--|
B||------1-------3--1----|--------1--------3-1-3-|------1--------3--1----|
G||-0-2----2-------------|--0--2-----2-----------|-0--2---2--------------|
D||----------------------|-----------------------|-----------------------|
A||----------------------|-----------------------|-----------------------|
E||----------------------|-----------------------|-----------------------|
                                                                      
E||-1--1--0----0--0--0-------------|
B||----------3----------3--3----1--|
G||--------------------------------|
D||--------------------------------|
A||--------------------------------|
E||--------------------------------|

C
Mi mente da vueltas
F            G
y no puedo parar.
C
Pienso en tu cuerpo
F                G
y en tu forma de andar.
C
Oh! no 
F                G
que voy hacer si no estas.

Ya no duermo,no como
y no puedo trabajar.
y en la oficina 
no me quieren ni hablar.
Oh! no 
que voy hacer si no estas.

C          G
Y hablo la luna a solas
C                   F
le pregunto que hará ahora.
C                    G
y yano deseo aguantar mas.

C                     F
Mas te quiero quiero mas
                     C
mas de lo que tu me das
              G
regalame un beso
                  C
y no te arrepentiras.
                  F
Te quiero quiero mas
             C        G    C
y no te olvidaras de mi jamas

intro

Voy por la calle
y veo los chicos pasar.
Pero como tu
no hay ninguno igual.
oh no
que voy hacer si no estas.

Miro tus fotos
y me pongo a pensar
de que manera
yo te puedo encontrar
oh no
que voy hacer si no estas.

Y hablo con la luna...

Mas te quiero...

Louro´02

            
            
Suggest correction
Creating personal tab
Creating personal tab
You can edit any tab online and save it as your Personal.

You can edit, replace or remove any tab part or add personal notes – all changes will be seen only by you.

Personal tabs can be accessed anytime from any device, even offline.
Learn more »
Give kudos to tab author, rate the tab!
1 2 3 4 5
comments
print report bad tab
guest
Wanna post a correction for this tab? Suggest correction