Oops, an error
Loading. Please wait.

Eva María tab

version 1
version 1

Whole song

227 views 6 this week
no commentswrite comment
1 2 3 4 5
3 more votes to show rating
add to favorites
×
Save as Personal and add changes to this tab that will be seen only by you. Learn more ›
×
You can save this tab as Personal to edit and correct it or add notes. All changes will be seen only by you. Learn more »
launch autoscroll
font size
0
reset
how to read this tab
guitar tuner
edit
Autoscroll
slow
fast
+/-
esc
set tempo
stop
Intro y estribillo:
E||------------|----1-1-------|----------------------------------||
B||-----3-4----|--------1-3---|--------3-4-4-4---6-6-------------||
G||---3--------|--------------|------3---------5-----------------||
D||-3----------|--------------|----3------------------7-8--------||
A||------------|--------------|----------------------------------||
E||------------|--------------|----------------------------------||
¿Que voy hacer? ¿Que voy hacer? Que voy hacer si Eva Maria se fue

Estrofa:
E||-----------|--------------------------|--------------------||
B||-----3-3-4-|----------6-6-6--3--------|--------3-3-6-4-----||
G||-3-3-------|----5-5-5----------3------|-3-3-3--------------||
D||-----------|--------------------------|--------------------||
A||-----------|--------------------------|--------------------||
E||-----------|--------------------------|--------------------||
Eva Mº se fue buscando el sol en la playa con su maleta de piel

E||-----------------------------------------------------||
B||----3---6-6------------------------------------------||
G||--5---5-----7----------------------------------------||
D||--------------8--------------------------------------||
A||-----------------------------------------------------||
E||-----------------------------------------------------||
y su bikini de rayas.

Preestribillo:
E||------------|-------------|----------------------||
B||-8-6-8-6-8--|-6-8-6-8-6-8-|-6-8-6-8-6---6--------||
G||------------|-------------|-----------7----------||
D||------------|-------------|----------------------||
A||------------|-------------|----------------------||
E||------------|-------------|----------------------||
Ella se marchó y solo me dejó recuerdos de su ausencia

E||--------------------------------------------------||
B||--4-4-4--3---3----------6-6-6---------------------||
G||-----------5-----3-3-3--------3-------------------||
D||--------------------------------------------------||
A||--------------------------------------------------||
E||--------------------------------------------------||
sin la menor indulgencia Eva Maria se fue.

Louro´02

Cualquier cosa a maremoto007@

            
            
Suggest correction
Creating personal tab
Creating personal tab
You can edit any tab online and save it as your Personal.

You can edit, replace or remove any tab part or add personal notes – all changes will be seen only by you.

Personal tabs can be accessed anytime from any device, even offline.
Learn more »
Give kudos to tab author, rate the tab!
1 2 3 4 5
comments
print report bad tab
guest
Wanna post a correction for this tab? Suggest correction