Oops, an error
Loading. Please wait.

Día Negro tab

version 2
version 2

Whole song

by Forseps
19 views 1 this week
no commentswrite comment
1 2 3 4 5
3 more votes to show rating
add to favorites
×
Save as Personal and add changes to this tab that will be seen only by you. Learn more ›
×
You can save this tab as Personal to edit and correct it or add notes. All changes will be seen only by you. Learn more »
launch autoscroll
font size
0
reset
how to read this tab
guitar tuner
edit
Autoscroll
slow
fast
+/-
esc
set tempo
stop
Súper cover de Fórseps a La Barranca.
Básicamente esta canción es con quintas,
y una corrección a Leonardo Laguna
y no tanto corrección nada más le faltaba unos arreglos y el solo.

Riff Principal:

e|--------------------------------
B|--------------------------------
G|--------------------------------
D|-------------------------88-8---
A|--55-8-5-5-8-55-8-5-5-8--66-6---
E|--33-6-3-3-6-33-6-3-3-6---------
                           . .
                           P.M
    Riff 1
e|---------------------
B|---------------------
G|---------------------
D|---------------------
A|--------3-4-3--------
E|--3-6-----------6-3--

    Riff 2
e|---------------------------------
B|---------------------------------
G|---------------------------------
D|---------------------------------
A|--5-4-3-2-1-0--------------------
E|-------------3-------------------

    Riff 3
e|---------------------------------
B|---------------------------------
G|---------------------------------
D|---------------------------------
A|--5--4--3--2---------------------
E|--3--2--1--0---------------------

G5
Hoy es un día común
              D#5  (Riff 1) G5
Hoy es un día negro

La realidad otra vez
                    D#5     (Riff 1)

Esta parte se toca así:
e|---------------------------------
B|---------------------------------
G|---------------------------------
D|--7--7--5--5--3--3--2------------
A|--5-5---3-3---1-1---0------------
E|---------------------------------
D5
Muestra su rostro siniestro

Al abrir la puerta
           C5      A#5
Un aire violento

Me dice sin piedad
              A5    (Riff 2)
Que no estas ahí

G5
Alguien se roba tu luz
                    D#5  (Riff 1) G5
Alguien se roba tu perro

Alguien se roba también
                     D#5  (Riff 1)  D5
Lo que estas escribiendo

Alguien se roba tu nombre,
             C5     A#5
Tu paz y tu tiempo

Y solo salvaras
              A5  (Riff 2)
Tu propia visión

Esta se toca así:
e|-------------------------------------------
B|-------------------------------------------
G|---------------5--7--------------5---7-----
D|--------------5--7--------------5-5-7-7----
A|--5-8-5-5-8--3--5---5-8-5-5-8--3---5-------
E|--3-6-3-3-6---------3-3-3-3-6--------------

G5         C5  D5
Día negro
          G5         C5 D5
Hoy es un día negro
G5         C5 D5
Día negro
           G5    (Riff 3) E5
Hoy es un día así

Harmónicos Naturales
e|---12--
B|-12-----

G5
Un tiburón con poder
                     D#5  (Riff 1) G5
Y un gatillero sin riesgos

Alguien dispuesto a morder
                    D#5   (Riff 1)

Esta parte se toca asi:
e|---------------------------------
B|---------------------------------
G|---------------------------------
D|--7--7--5--5--3--3--2------------
A|--5-5---3-3---1-1---0------------
E|---------------------------------
D5
Por no perder su empleo

Todos tomando de un vino
             C5   A#5
Que no produjeron

Y sin pisar jamás
               A5   (Riff 2)
La línea de fuego

Esta se toca así:
e|-------------------------------------------
B|-------------------------------------------
G|---------------5--7--------------5---7-----
D|--------------5--7--------------5-5-7-7----
A|--5-8-5-5-8--3--5---5-8-5-5-8--3---5-------
E|--3-6-3-3-6---------3-3-3-3-6--------------

G5         C5  D5
Día negro
          G5         C5 D5
Hoy es un día negro
G5         C5 D5
Día negro
           G5    (Riff 3) E5
Hoy es un día así

Harmónicos Naturales
e|---12--
B|-12-----

Solo: D#5 G5 D#5 D5
e|--------------------------------------------------------------------
B|--------------------------------------------------------------------
G|---------------------------------------------------------------79797
D|-----5-------5-----------------------------5-----5----------7878----
A|-66-8-8-6-6-8-8-666---5-6-5---5-6-5----66-8-8-6-8-8-666-5656--------
E|--------------------33-----3-3-----333------------------------------

Y regresamos al coro:
e|-------------------------------------------
B|-------------------------------------------
G|---------------5--7--------------5---7-----
D|--------------5--7--------------5-5-7-7----
A|--5-8-5-5-8--3--5---5-8-5-5-8--3---5-------
E|--3-6-3-3-6---------3-3-3-3-6--------------

G5         C5  D5
Día negro
          G5         C5 D5
Hoy es un día negro
G5         C5 D5
Día negro
           G5    (Riff 3) E5
Hoy es un día así

Y termina en E5.

            
            
Suggest correction
Creating personal tab
Creating personal tab
You can edit any tab online and save it as your Personal.

You can edit, replace or remove any tab part or add personal notes – all changes will be seen only by you.

Personal tabs can be accessed anytime from any device, even offline.
Learn more »
Give kudos to tab author, rate the tab!
1 2 3 4 5
comments
print report bad tab
guest
Wanna post a correction for this tab? Suggest correction