Oops, an error
Loading. Please wait.

Te Soñé, Lluvia De Abril tab

version 1
version 1

Whole song

29 views 1 this week
no commentswrite comment
1 2 3 4 5
3 more votes to show rating
add to favorites
×
Save as Personal and add changes to this tab that will be seen only by you. Learn more ›
×
You can save this tab as Personal to edit and correct it or add notes. All changes will be seen only by you. Learn more »
launch autoscroll
font size
0
reset
how to read this tab
guitar tuner
edit
Autoscroll
slow
fast
+/-
esc
set tempo
stop
Esta es mi primera transcripción. Si hay algún error, les ruego 
que me lo comuniquen a mi correo.

Intro:

1-|------ 7 5 ------------|
2-|-5 7 8-----8 7 8 10 7 -|
3-|7----------------------|
4-|-----------------------|
5-|-----------------------|
6-|-----------------------|

A)

1-|7---5-/-5 7 8 7 5-----5-------/-------5 7 5-|
2-|--5---/-----------8 7---8 5 7-/-5 7 8-------|
3-|--------------------------------------------|
4-|--------------------------------------------|
5-|--------------------------------------------|
6-|--------------------------------------------|

B)

1-|5 7 8 7 5-----5-----/-------5 7 5---/-------5 7 5 7 5--|
2-|----------8 7---7 5-/-5 7 8-------5-/-5 7 8-----------8|
3-|-------------------------------------------------------|
4-|-------------------------------------------------------|
5-|-------------------------------------------------------|
6-|-------------------------------------------------------|

C)

1-|--10----/------5 7 8 8 7---5/--10-----------5 7 5-8 7 5------|
2-|8----7 8/5 7 8-----------8--/8----7 8-5 7 8-------------8 7 8|
3-|-------------------------------------------------------------|
4-|-------------------------------------------------------------|
5-|-------------------------------------------------------------|
6-|-------------------------------------------------------------|

D)

1-|------5 7 5 7-/-5 7 8 7 5 8 5 7 10 7 12-|
2-|5 7 8---------/-------------------------|
3-|----------------------------------------|
4-|----------------------------------------|
5-|----------------------------------------|
6-|----------------------------------------|

E)

1-|---12---------------------10 10----------/----12---------------|
2-|10----9 10-------10 12 13-------13 12 10-/-10----9 10-------10-| 
3-|-----------10 12-------------------------/------------10 12 ---|
4-|---------------------------------------------------------------| 
5-|---------------------------------------------------------------| 
6-|---------------------------------------------------------------|

1-|---------/-10-------------10 10-|
2-|12 13 12-/----13 12 10----------|
3-|---------/-------------12-------|
4-|--------------------------------|
5-|--------------------------------|
6-|--------------------------------|

CANCION:

INTRO 4 VECES

(A)
Te soñé y en tu rostro gentil
hasta pude ver tu sonrisa sutil
(A)
quise ser como un niño otra vez
echando a correr bajo lluvia de abril
(B)
y llegar empapado a tus brazos
por sentir el calor maternal de tu abrazo

(A)
Te soñé con tu andar señoril
y te pude ver solamente el perfil
(A)
te pasé para verte después desaparecer
vestidita de añil
(B)
y te quise atrapar en mis sueños
pero echaste a volar en las alas del viento

(C)
Y desperté aún sintiendo el aroma de tu piel
buscandote en las sobras que están
fijas en la pared

(A)
Te soñe como un angel azul 
al amanecer vestidita de tul
(A)
Y lloré al mirarte después desaparecer
sobre un rayo de luz
(B)
y te quise atrapar en mis sueños
pero echaste a volar en las alas del viento

(C)
Y desperté aun sintiendo el aroma de tu piel
buscandoté en las sobras
que están fijas en la pared
(C)
Y desperté con los labios resecos por la sed
sientiendote como lluvia de abril
dándome de beber

(D)
Y es que llevo en el alma
una huella de amor que no morirá

(E)
Y desperté aun sintiendo el aroma de tu piel
buscandoté en las sobras 
que están fijas en la pared
(E)
Y desperté con los labios resecos por la sed
sientiendoté como lluvia de abril
dándome de beber.

EXPLICACION:
Esta facil. Lo único es que cada parte tiene una 
letra anexada. 
Sólo es llevar el ritmo en cada parte.
GSOFT 2003

            
            
Suggest correction
Creating personal tab
Creating personal tab
You can edit any tab online and save it as your Personal.

You can edit, replace or remove any tab part or add personal notes – all changes will be seen only by you.

Personal tabs can be accessed anytime from any device, even offline.
Learn more »
Give kudos to tab author, rate the tab!
1 2 3 4 5
comments
print report bad tab
guest
Wanna post a correction for this tab? Suggest correction