Oops, an error
Loading. Please wait.

Mi Sueño tab

version 1
version 1

Whole song

19 views 1 this week
no commentswrite comment
1 2 3 4 5
3 more votes to show rating
add to favorites
×
Save as Personal and add changes to this tab that will be seen only by you. Learn more ›
×
You can save this tab as Personal to edit and correct it or add notes. All changes will be seen only by you. Learn more »
launch autoscroll
font size
0
reset
how to read this tab
guitar tuner
edit
Autoscroll
slow
fast
+/-
esc
set tempo
stop
Intro   Riff 1


Riff 1
   Cm
e------3-------3---------3------3----------
B------------------4-----------------------
G---5-----5-7----7-----5---5--5---5--------
D------------------------------------------
A---3----------------3---------------------
E------------------------------------------

Cm            Bb                  F/A
  Tal vez sea yo, el hombre más feliz de este planeta
Bb                  F/A       G
 si cuento con tus besos cada vez que se me antoja.
Cm         /Bb           F/A
Oh, también, el más afortunado de este mundo,
Bb                      F/A                G
  si cada vez que me despierto yo te encuentro aquí a mi vera,
Dm                 /C              G
oh, tal vez no exista nada que me importe más que tú,
      D#          Bb             G#
y me basta con saber que estas allí,
    G
pensando un poco en mí.

CORO I
   Dm  /C   G
Y tú, la vida,
     C        G/B            F
en cada beso tú me das la vida,
  Dm /C    G
Y tú, mi fuerza,
     C             G/B                F
para entender un poco más el mundo donde vivo.
G#                        C
Un tiempo para sentirse seguro,
Fm                          G
un tiempo donde se puede soñar.


Tal vez sea yo, el hombre más feliz de este planeta,
si has hecho con mi vida lo que a ti te dio la gana.
Oh, También nunca llegué a decirte todo lo que siento,
yo no me atrevería a ver quién tiene ese talento.
Oh, tal vez no exista nada que me duela más que tú,
y me basta con saber que estás allí,
pensando un poco en mí.

CORO II

Y tú, la vida,
en cada abrazo tú me das la vida,
y tú, mi fuente,
de donde bebo cada día de mi vida.
Un tiempo para sentirse seguro
                          G    F
un tiempo donde se puede soñar,
D#               F        G
donde se puede vivir, sentir.


CORO I

    Fm                        C
...un tiempo donde se puede soñar,
G#                                C
un tiempo donde todo luce tan perfecto,
                     Fm
por si acaso no me muevo,
                   G
que no quiero despertar.
Riff 2
Cm           /Bb                G#
 Tal vez sea yo, el hombre más feliz de este planeta.

FINAL    Riff 3   Riff 4 (4)   C#m

Riff 2
   Cm         /Bb      G#
e------3-------------------3-----3---
B--------------4-3-------------------
G----5---3---------5-----5---5--5----
D-----------------------6------------
A--3---------1-----------------------
E------------------------------------

Riff 3
   Cm         /Bb
e------3---------------
B--------------4-3-----
G----5---3---------5---
D----------------------
A--3---------1---------
E----------------------

Riff 4
    C#m    G#
e------3-------------
B----------3-6-3-----
G----5--5--------5---
D---6----------------
A--------------------
E--------------------
Suggest correction
Creating personal tab
Creating personal tab
You can edit any tab online and save it as your Personal.

You can edit, replace or remove any tab part or add personal notes – all changes will be seen only by you.

Personal tabs can be accessed anytime from any device, even offline.
Learn more »
Give kudos to tab author, rate the tab!
1 2 3 4 5
comments
print report bad tab
guest
Wanna post a correction for this tab? Suggest correction