Oops, an error
Loading. Please wait.

Jesús, Sal Como Gigante tab

version 2
version 2

Whole song

11 views 1 this week
no commentswrite comment
1 2 3 4 5
3 more votes to show rating
add to favorites
×
Save as Personal and add changes to this tab that will be seen only by you. Learn more ›
×
You can save this tab as Personal to edit and correct it or add notes. All changes will be seen only by you. Learn more »
launch autoscroll
font size
0
reset
how to read this tab
guitar tuner
edit
Autoscroll
slow
fast
+/-
esc
set tempo
stop
comienso de la cancion escuchenla para enteder los tiempos
a mi juisio estos son los punteos originales
e-------------------------------------------
b---------------------------------------------
g---------------------------------------------
d---------------------------------------------
a-7-7-7-7-7-7-7-7-7--10-10-10--9-9-9----------
e-------------------------------------10-10--
00:11
e--15----14----12--12-----------------
b-----12----12---12--12---------------
g-------------------------------------
d-------------------------------------
a-------------------------------------
e-------------------------------------
despues viene la acustica hase solo Mim y re
esta es la parte del coro la tierra cantara tu nom
e--------------------------------------------5------------
b-8-7-8---8-7-8---8-7-8---8-7-8---8-7-8----8---8-7-8-(12--
g-------9-------9-------9-------9-------9-----------------
d---------------------------------------------------------
a---------------------------------------------------------
e---------------------------------------------------------
este es el punteo la parte q pude sakar la otra parte no se entiende
ponganle de su talento en el mismi tono

e----------------------------------------------------
b--8-8-7-8-10-10-8-(10-12)-12-12-13-12-10------------
g---------------------------------------------------
d---------------------------------------------------
a---------------------------------------------------
e-------------------------------------------------
la otra parte del solo no se entiende creo q raskea en g
(10-12) se arrastra el dedo poe la cuerda hasta el espacio (12
 
saludos a la iglecia de siria !uguante jovenes de siria!
espero q les guste es la original 

         PAPA DIOS LOS VENDIGA CHAOOOO

            
            
Suggest correction
Creating personal tab
Creating personal tab
You can edit any tab online and save it as your Personal.

You can edit, replace or remove any tab part or add personal notes – all changes will be seen only by you.

Personal tabs can be accessed anytime from any device, even offline.
Learn more »
Give kudos to tab author, rate the tab!
1 2 3 4 5
comments
print report bad tab
guest
Wanna post a correction for this tab? Suggest correction