Oops, an error
Loading. Please wait.

Mi Única Ayuda tab

version 1
version 1

Whole song

11 views 1 this week
no commentswrite comment
1 2 3 4 5
3 more votes to show rating
add to favorites
×
Save as Personal and add changes to this tab that will be seen only by you. Learn more ›
×
You can save this tab as Personal to edit and correct it or add notes. All changes will be seen only by you. Learn more »
launch autoscroll
font size
0
reset
how to read this tab
guitar tuner
edit
Autoscroll
slow
fast
+/-
esc
set tempo
stop
hola a todos bueno ante todo me parecen buenas las versiones
anteriores pero creo ke esta es una version mas pulida, para
empezar para mi la cancion usa capo trasteen el tercer traste
(3er) desde ahi empezaremos a contar olvidandonos de los trastes
anterioreses decir ke el traste 4 sera el primero, el traste 5
sera el segundo y asi
susecivamente.

con el capo la cancion estaria en Am

INTRO:

       Am                  C               F              G(rasgueo
                                                         hacia abajo)

e---------0-------------------0-----------------3----------3------
B-------1-------------------1-----------------1---1--------3------
G-----2-------------------0-----------------0--------------0------
D---2-------------------2-----------------2----------------0------
A--0------------------3------------------------------------2------
E---------------------------------------1------------------x------

EN ESTA PARTE DE LA ESTROFA ES IGUAL AL INTRO

Am    C            F    G
Nada mas quiero pedirte
Am    C       F    G
Solo esto deseo hoy
Am         C         F     G
Yo quiero estar en Tu templo


AQUI HAY UNOS PEQUEÑOS AGREGLOS

          Am                  C                 F          G(rasgueo
                                                         hacia abajo)

e------------------------------------------------3----------3------
B-------0/1/0----------------0/1/0--------------1---1-------3------
G-----2-------2------------0-------0----------0-------------0------
D---2-----------2--------2-----------2------2---------------0------
A--0------------------3-------------------------------------2------
E----------------------------------------1------------------x------

           Am,C         F    G
Todos los dias de mi existir


Coro: (AQUI SOLO SON RASGUEOS)

C      Dm            Am           Gsus9
Para adorarte en Tu presencia
         C         Dm           Fsus4
Y contemplar lo hermoso que eres Tu
C      Dm            Am           Gsus9
Anhelo verte, no quiero estar sin Ti
 C         Dm           Fsus4
Mi unica ayuda eres Tu


Puente:
Em     Dm       Am        Amsus7
Dia y noche, escucho mi corazon
 C           Dm        Am Amsus7      Fsus4
Y busco por siempre   de Ti,         de Ti


SOLO:

*LA SEGUNDA GUITARRA HACE ESTA BASE

Am  C  F  G
Am  C  F
Am  C  F  G
Am  C  F  G

//C  Dm  Am  Gsus9
  C  Dm  Fsus4// X2


*LA PRIMERA GUITARRA HACE ESTO ( recuerden que se cuenta a partir del
 capo como traste cero)


e--------------0/1-0-3--------5-7-8--5-7------7-8--5-7--3------------
B-----0-1-3-----------------8-----------------------------5-6--6s8---
G--------------------------------------------------------------------
D---2----------------------------------------------------------------
A--------------------------------------------------------------------
E--------------------------------------------------------------------


e------------------------------------------------
B---6-6h5-------6-6h5--8-5----6-6h5--------------
G---------7-5-----------------------7-5--4-5-----
D------------------------------------------------
A------------------------------------------------
E------------------------------------------------


e------------5-7-8-10-12-13-----12h13--12-10-12-----------
B---6-6h5--8------------------------------------8--------
G---------------------------------------------------------
D---------------------------------------------------------
A---------------------------------------------------------
E---------------------------------------------------------


e----7-8-8s10--8-7-8-------7-8-8s10--10s12--10s8s7--------
B--------------------8-----------------------------8------
G---------------------------------------------------------
D---------------------------------------------------------
A---------------------------------------------------------
E---------------------------------------------------------


e---------------------------------
B----8-6-5-6-----8-6-5-6----------
G---------------------------------
D---------------------------------
A---------------------------------
E---------------------------------


e----7-8-8s10--8-7-8-------7-8-8s10--10s12--10s8s7--------
B--------------------8-----------------------------8------
G---------------------------------------------------------
D---------------------------------------------------------
A---------------------------------------------------------
E---------------------------------------------------------


e---------------------------------
B----8-6-5-6-----8-6-5-6----------
G---------------------------------
D---------------------------------
A---------------------------------
E---------------------------------


sigue el coro y para terminar


         Am                  C                 F          G(rasgueo
                                                         hacia abajo)

e------------------------------------------------3----------3------
B-------0/1/0----------------0/1/0--------------1---1-------3------
G-----2-------2------------0-------0----------0-------------0------
D---2-----------2--------2-----------2------2---------------0------
A--0------------------3-------------------------------------2------
E----------------------------------------1------------------x------


         Am                  C                 F

e------------------------------------------------3----------------
B-------0/1/0----------------0/1/0--------------1---1-------------
G-----2-------2------------0-------0----------0-------------------
D---2-----------2--------2-----------2------2---------------------
A--0------------------3-------------------------------------------
E----------------------------------------1------------------------


Gsus9  : 3X0013
Fsus4  : X33011
Amsus7 : X20013


Bueno espero que sea de mucha ayuda para ustedes este mi 3er aporte
en lacuerda cualquier cosa pueden escribirme a mi correo
hs306_66@ de Lima-Peru..
Hans Steven De La Cruz Q.. Bendiciones!

            
            
Suggest correction
Creating personal tab
Creating personal tab
You can edit any tab online and save it as your Personal.

You can edit, replace or remove any tab part or add personal notes – all changes will be seen only by you.

Personal tabs can be accessed anytime from any device, even offline.
Learn more »
Give kudos to tab author, rate the tab!
1 2 3 4 5
comments
print report bad tab
guest
Wanna post a correction for this tab? Suggest correction