Oops, an error
Loading. Please wait.

Heroes tab

version 1
version 1

Whole song

67 views 1 this week
no commentswrite comment
1 2 3 4 5
3 more votes to show rating
add to favorites
×
Save as Personal and add changes to this tab that will be seen only by you. Learn more ›
×
You can save this tab as Personal to edit and correct it or add notes. All changes will be seen only by you. Learn more »
launch autoscroll
font size
0
reset
how to read this tab
guitar tuner
edit
Autoscroll
slow
fast
+/-
esc
set tempo
stop
HÉROES

   D    G
e|--------------------------------------------------------------------|
B|-3s10-10-10b-10-3s10-8-7-8-10---3s10-10-10b-10-3s10-8-7-8-10--------|
G|------------------------------4------------------------------7-9-10-|
D|--------------------------------------------------------------------|

D              G
Yo, yo seré el rey
Y vos, serás la mujer,
LA reina

       C                D
Aunque nada podrá desterrarnos
           C     G        D
podemos echarlos, por una vez
            C     G        D
podemos ser héroes por una vez

D                G
Y vos, mediocre sutil
Y yo, tomando sin parar
Porque somos amantes no más
Y eso es todo, sólo al jugar
       C                  D
Aunque nada nos mantendrá juntos
           C     G
podemos echarlos, hacer lo de siempre
            C      G       D
Podemos ser héroes por una vez
¿No lo ves? Oh oh

   D    G
e|------------------------------------------------------------10v-|
B|-3s10---10---10---10---10b-10-10b-10-3s10---10---8-8-7-10-------|
G|------7----7----7----7--------------------7----7----------7-----|
D|----------------------------------------------------------------|

D          G
Yo, yo recuerdo
Parados contra el paredón
Silbaban balas sobre nosotros
y nos besamos
Como si no hubiera más que dos
dos, dos
          C                       D
Y hubo vergüenza y fuimos a otro lugar
           C      G
Pudimos echarlos, hacer lo de siempre
            C      G        D
Pudimos ser héroes, por una vez
¿No lo ves? Oh oh

   D    G                                    |
e|-10s18----18----18----18----18bv-|               |
B|-------15----15----15----15------|               |
                                             | (x2)
e|-10s18----18----16-16-15-16-18----16-15-------|  |
B|-------15----15----------------15-------16----|  |

      C                      D
Somos nada y nada puede lastimarnos
              C   G         D
Creerás que miento como esa vez
              C   G         D
¿podremos cuidarnos alguna vez?
             C    G         D
¿Seríamos héroes?, ¿héroes?

D   G (x4)

   C                D               C                     G
e|----------------------------------------------------------------------|
B|-10-8-10-8-10-8-7-8-7-------------------------------------------------|
G|----------------------7---5s7-9-7-5-4---7-5-4---7-5-4-----------------|
D|------------------------7-------------5-------5-------5-4-5-7-5-4-7-5-|
A|----------------------------------------------------------------------|
E|----------------------------------------------------------------------|

              C   G         D
¿podremos cuidarnos alguna vez?
             C    G         D
¿Seríamos héroes?, ¿héroes?
              C   G         D
¿podremos cuidarnos alguna vez?
             C    G         D
¿Seríamos héroes?, ¿héroes?

C G D

            
            
Suggest correction
Creating personal tab
Creating personal tab
You can edit any tab online and save it as your Personal.

You can edit, replace or remove any tab part or add personal notes – all changes will be seen only by you.

Personal tabs can be accessed anytime from any device, even offline.
Learn more »
Give kudos to tab author, rate the tab!
1 2 3 4 5
comments
print report bad tab
guest
Wanna post a correction for this tab? Suggest correction