Oops, an error
Loading. Please wait.

Esperando Tu Regreso tab

version 1
version 1

Whole song

69 views 1 this week
no commentswrite comment
1 2 3 4 5
3 more votes to show rating
add to favorites
×
Save as Personal and add changes to this tab that will be seen only by you. Learn more ›
×
You can save this tab as Personal to edit and correct it or add notes. All changes will be seen only by you. Learn more »
launch autoscroll
font size
0
reset
how to read this tab
guitar tuner
edit
Autoscroll
slow
fast
+/-
esc
set tempo
stop
Hola que tal hoy empezamos con esta cancion que en lo personal
 me gusta mucho y tuve el honor de tocarla junto a ellos y
es muy facil primero empezamos con el requinto que
esta en el tono de Fa

e/-8--8--6-5-6-8--6-5-6-8--
B/-10-10-8-6-8-10-8-6-8-10-
G/-------------------------
D/-------------------------
A/-------------------------
E/-------------------------

e/-10-10-8--6-8--10-8--6-8--10-
B/-11-10-10-8-10-11-10-8-10-11-
G/-----------------------------
D/-----------------------------
A/-----------------------------
E/-----------------------------

e/-10/12-10-8--10-12-10-8--10-12--12---
B/-11/13-11-10-11-13-11-10-11-13----13-
G/-------------------------------12--12
D/-------------------------------------
A/-------------------------------------
E/-------------------------------------

e/-12-12-10-8--6-8--6-5-3-5-6--6--5--5
B/-13-13-11-10-8-10-8-6-5-6--6--6--6--6
G/----------------------------5--5--5--5
D/--------------------------------------
A/--------------------------------------
E/--------------------------------------


F
En algun lugar del mundo
      C                F
estaras no se con quien
y una cosa te aseguro
         F7            A#
que si eres feliz con el
F
estare contento yo tambien
C
estare  contento
        A#            F
de saber que vives bien

F
Esperando tu regreso
        C            F
otro amor nunca busque
y ya casi soy un viejo
             F7         A#
por que siempre te espere
F
ya mi juventud atras deje
C                         A#         F
los mejores años de mi vida te entregue

                       C
Esos hijos que ahora tienes con el
                  F
debieron ser mis hijos
                    C
y esa misa que escuchabas
ese dia que te casabas
                      F
la debi escuchar tambien

(se repite el requinto)

F
Ya mi pelo pinta canas
      C            F
y de ti no supe mas
y si me muero mañana
        F7          A#
se que nunca lo sabras
 F
que ya muy cansado de esperar
C                        A#         F
te segui queriendo cada dia mas y mas

                     C
Esos hijos que ahora tienes con el
                  F
debieron ser mis hijos
                    C
y esa misa que escuchabas
ese dia que te casabas
                      F
la debi escuchar tambien

Bueno esto a sido todo cualquier duda pueden enviarme un correo
 a krazimaster@
saludos!!

            
            
Suggest correction
Creating personal tab
Creating personal tab
You can edit any tab online and save it as your Personal.

You can edit, replace or remove any tab part or add personal notes – all changes will be seen only by you.

Personal tabs can be accessed anytime from any device, even offline.
Learn more »
Give kudos to tab author, rate the tab!
1 2 3 4 5
comments
print report bad tab
guest
Wanna post a correction for this tab? Suggest correction