Oops, an error
Loading. Please wait.

No Sólo Respirar tab

version 2
version 2

Whole song

by La Fuga
154 views 1 this week
no commentswrite comment
1 2 3 4 5
3 more votes to show rating
add to favorites
×
Save as Personal and add changes to this tab that will be seen only by you. Learn more ›
×
You can save this tab as Personal to edit and correct it or add notes. All changes will be seen only by you. Learn more »
launch autoscroll
font size
0
reset
how to read this tab
guitar tuner
edit
Autoscroll
slow
fast
+/-
esc
set tempo
stop
wenu aqi teneis el nuvo single de la fuga
los acordes creo q estan perfectos, el punteo...
se toka to con quintas!!
ala a disfrutarla:


intro
G --4----4----4----4--
D -4-4--4-4--4-4--4-4-  x2
A 2----0----2----2----

la segunda vez q se repite lo de arriba
la otra guitar ace esto:

G -s7----------6b7b6--4-
 y empieza la lewtra

G --4----4----4----4--
D -4-4--4-4--4-4--4-4-
A 2----0----2----2----
no tirare de reprroxes

G --4----4----4----4--
D -4-4--4-4--4-4--4-4-
A 2----0----2----2----
me basta con un adios

G --2---2-----------
D -2-2-2-2---5---5--
A 0---0-----5-5-5-5-
E ---------3---3----

se me atrgantan tus noxes

G --2---2----7---7--
D -2-2-2-2--7-7-7-7-
A 0---0----5---5----

tus dias aun peor       B --5----3-2--

esta estrofa es iwual q la primera

quien es Cain quien es abel?
quien a jodido este abril
en tus ojos mil tomentas
los mios no qeren abrir

RE-DO#

SI
ya ves cojo mi mala cara

RE        LA
 me voi de aqi

SI     SOL                RE
no se las veces que me reinvente

SI           SOL            RE      LA
dormir se antoja muy dificil si es sin ti


SI       SOL     RE     LA
no solo respirar es vivir


puente SI SOL RE LA

i vuelve a repetirse iwual q la primera estrfa

vete apurando el mal trago
LA espesa conversacion
ia esta todo gritado
mejor pal corazon

(aora esta estrofa lo ace con un poco de pal mute)
i q lo cure los años
q lo alivie otros labios
sera mejor partir
que desangrarnos

estribillo

punteo:
E -------------------------------------------
B ------7------------------------------------
G ------9b11b9--7----------------------------
D -s9-9-----------9-79-7s2-----2-4--2--------
A -------------------------2-4--------4-2-4--
E -------------------------------------------


E --------------12b14b12--10-----------------
B --12b14b12--10--------------12-1012--------
G -------------------------------------------
D -------------------------------------------
A -------------------------------------------
E -------------------------------------------


E --------------------------------------
B---------------------7----7------------
G------7*-9*-9b(harm)-7-9b11---9-7-7-9--
D -7*-9*--------------------------------
A --------------------------------------
E --------------------------------------


E --------------------------------------
B -------13p12-13p12----12--13p12-12----
G s14-14--------------14----------------
D --------------------------------------
A --------------------------------------
E --------------------------------------


E --------------------------12b14b12-----
B -------13p12-13p12----12-----------15--12
G -s14 14------------14------------------
D ---------------------------------------
A ---------------------------------------
E ---------------------------------------


*(pal mute)
harm: armonico provocado
B:bend
p:pull off
                        SI
i vuelto a er el idiota
                      SI
q llama de madrugada
                      LA-FA#
para colgar sin dcir nada
                       LA-FA#
a esas oras no hay palabras


LA-SI                   SOL
i te maldigo en mis canciones
RE                   FA#
xk no me trevo a la cara
SI                     SOL
i voy barriendo los rincones
FA#               SI
de mi alma

SI-SOL-RE-FA#(unas cuantas veces)i acaba en si

wenu ahi esta la cancion mas o menos
espero q os guste

VIVA LA FUGA!!!!!!!!!!!!!!!!!!!!!

            
            
Suggest correction
Creating personal tab
Creating personal tab
You can edit any tab online and save it as your Personal.

You can edit, replace or remove any tab part or add personal notes – all changes will be seen only by you.

Personal tabs can be accessed anytime from any device, even offline.
Learn more »
Give kudos to tab author, rate the tab!
1 2 3 4 5
comments
print report bad tab
guest
Wanna post a correction for this tab? Suggest correction