Oops, an error
Loading. Please wait.

Libre Al Fín tab

version 1
version 1

Whole song

32 views 1 this week
no commentswrite comment
1 2 3 4 5
3 more votes to show rating
add to favorites
×
Save as Personal and add changes to this tab that will be seen only by you. Learn more ›
×
You can save this tab as Personal to edit and correct it or add notes. All changes will be seen only by you. Learn more »
launch autoscroll
font size
0
reset
how to read this tab
guitar tuner
edit
Autoscroll
slow
fast
+/-
esc
set tempo
stop
Intro: G-C-Bm-Am

G                   Bm             Am
Te conocí en una escuela nacional
G                   Bm             Am
no comíamos mierda de nadie y al final
Am         Bm   G          Em
El director firmó la hoja de expulsión
C        Bm        C
le dijimos adiós...
C     Bm      C
y a la mierda !

Repite Intro

Después de un tiempo la cosa no fue mal
Los fines de semana salíamos a bailar
Cómo me hacías reir toda la noche en cualquier bar
jugando al billar smoking menthol

Repite Intro

Yo ensayaba en mi habitación
y tu preparabas mientras tu proxima accion
y en un momento dado, el tipo equivocado
cae empapelado,y a la carcel ! (porque a vos te abandonó)

Repite Intro

Hice lo que pude pa escribir
como la has pasado, honey ? te dieron mucho ahí ?
cuando te vea venir vamos a convertir
toda esta ciudad (toda Buenos Aires)
en cenizas ! (porque ellos se lo merecen)

Bm                             Em
Aunque pasen los años y todo haya cambiado
C                      D
yo me quiero ir de aquí
Bm                    Em
Nunca olvidaré lo que sentí
C                      G
cuando saliste libre al fin


Nunca olvidaré lo que sentí
cuando sabía dónde ibas a ir
y si estás hoy ahí ¿hecho un trapo?
¿hecho entrar? por mi
desde aquí lo haré por tí...
C
Tranquilo...
Bm
con cuidado...
Am
Libre al fin

e:---------------------------------------------------------------
B:-/15~-15~-15~-15~-15-13-12-13~-13~-13~-13-12-10-12~-12~-12~-10-
G:---------------------------------------------------------------
D:---------------------------------------------------------------
A:---------------------------------------------------------------
E:---------------------------------------------------------------

e:-----------------------------------------------------------
B:-12-10/8-8~-10-8-7-8-7---7---------------------------------
G:-----------------------9---9-7-9-7-6-7-6---6---------------
D:-----------------------------------------9---9-7-9-7-6-7-6-
A:-----------------------------------------------------------
E:-----------------------------------------------------------

e:----------------------------
B:---------------------------- Repite esta parte
G:---------------------------- como unas 10 veces
D:---6-7-7-9-7-6-7~-9-7-6-7-6-
A:-9--------------------------
E:----------------------------

El punteo va sobre los acordes la introduccion.

            
            
Suggest correction
Creating personal tab
Creating personal tab
You can edit any tab online and save it as your Personal.

You can edit, replace or remove any tab part or add personal notes – all changes will be seen only by you.

Personal tabs can be accessed anytime from any device, even offline.
Learn more »
Give kudos to tab author, rate the tab!
1 2 3 4 5
comments
print report bad tab
guest
Wanna post a correction for this tab? Suggest correction