Oops, an error
Loading. Please wait.

Pabellón Séptimo tab

version 4
version 4

Whole song

79 views 1 this week
no commentswrite comment
1 2 3 4 5
3 more votes to show rating
add to favorites
×
Save as Personal and add changes to this tab that will be seen only by you. Learn more ›
×
You can save this tab as Personal to edit and correct it or add notes. All changes will be seen only by you. Learn more »
launch autoscroll
font size
0
reset
how to read this tab
guitar tuner
edit
Autoscroll
slow
fast
+/-
esc
set tempo
stop
Intro:                           Bbm             G# Bbm
D#5(riff)hasta LA primer barra    luego de la barra repetir x2
E--------------------------------|--------------------
B-4-4-4-4-2-2-2--4-4-4-4-2-2-2---|-11-----11----11-----
G---------------3--------------3-|-13e15--13e15-13e15---

Primer viola sobre F#
E-----------------------13------------------|--
B-16-14------14-16-16e18--16e18-16-14-16e18-|--
G-------13-13-------------------------------|--

Segunda viola sobre Bbm
E-13h16p13---------------------------------------------
B----------16p14------------------------------------------
G----------------15p13-13h15p13----13-13-13-13-15p13-x------
D-------------------------------15------------------------

E------------------------------
B------------13-13-13-13-13-13--------
G-15p13---13-13-13-13-13-13-13--------
D-------15-----------------------

Primer viola sobre F#
E-------------------------------------
B-16e18-16-14----16e18(16)p14------------
G-------------15-------------15--------
D-------------------------------------

segunda viola
E---------------------------------------------
B-13-13-13-13-13-13-13-13-13-13-13-13----------
G-13-13-13-13-13-13-13-13-13-13-13-13------------
D--------------------------------------------

Riff 2(repetir 2 veces)
E---------------------
B-2/4-2-1-1h2-1h2p1--------
G-------------------3--

riff 3
E----------
B-9-8-6-9-8-6---

D#5 (riff)
¡Me asfixio! ¡Dios! Pienso en mi cara?
Bbm                 G#  Bbm
se está quemando, ahora, mi cara? ¡Dios!
D#5(riff)
Una explosión y los colchones
Bbm(riff 2)         G# Bbm
se prenden fuego y nos quemamos vivos?
D#5 (riff3)
Quiero salir, quiero escapar,
Bbm               G#  Bbm
las puertas siguen encerrojadas.
D#5   riff 3
El pabellón? en un segundo
Bbm   riff 2    G#     Bbm
se nubló todo y ya no vemos nada más?

F#
Pruebo trepar hasta un ventanal
Bbm
buscando el aire y me balean fiero
F#
Viejita, amor, hijas y amigas,
Bbm
buscan noticias en la puerta, ahí fuera?

Tiempo después, escucho aún
el ruido de loco de los paloteros
buscan así baldosas flojas
dónde escondemos tesoro y miserias

¡Pobrecito!... Pobre 'el cebolla',
no pudo más, se degolló por miedo.
Nadie es capaz (¡No pueden borrar mis recuerdos!)
Nadie es capaz de matarte en mi alma?

solo: (D#-Bb)x4

¡Y así te dan!..¡Así te quiebra!
Así te dan por culo allí? sin más
Por ésa vez la Vieja Cosechera
vino por mí y no quiso besar mi vida.

Estoy herido, estoy quemado
voy en camilla por el Salaberry
Voy a tratar de hacer conducta aquí
para rajar antes que mis pulmones
Si va a pasar algo conmigo
quiero que sea en libertad? ¡Allá afuera!
¡Y nada más! ¡Irme y nada más!
No quiero ver más gruesa del llavero
ni mirar la pared si el pasarela grita
para tapar los quejidos y lamentos
¡Ya nunca más!
         F#                          Bbm   G# Bbm
¡Y nunca ya voy a olvidarte, Pablo? nunca!

Lejos uno de los mejores finales de los ultimos tiempos, temazo
del  solo y demas punteos no los pude transcribir
despues si alguien lo quiere que me mande un mail.
' ...y cuanto valen voluntades que crees haber sitiado?...'

            
            
Suggest correction
Creating personal tab
Creating personal tab
You can edit any tab online and save it as your Personal.

You can edit, replace or remove any tab part or add personal notes – all changes will be seen only by you.

Personal tabs can be accessed anytime from any device, even offline.
Learn more »
Give kudos to tab author, rate the tab!
1 2 3 4 5
comments
print report bad tab
guest
Wanna post a correction for this tab? Suggest correction