Oops, an error
Loading. Please wait.

Te Estás Quedando Sin Balas De Plata... tab

version 1
version 1

Whole song

11 views 1 this week
no commentswrite comment
1 2 3 4 5
3 more votes to show rating
add to favorites
×
Save as Personal and add changes to this tab that will be seen only by you. Learn more ›
×
You can save this tab as Personal to edit and correct it or add notes. All changes will be seen only by you. Learn more »
launch autoscroll
font size
0
reset
how to read this tab
guitar tuner
edit
Autoscroll
slow
fast
+/-
esc
set tempo
stop
INTRO:  (E5 - Bb5) x2

     E5         Bb5
E |-----------|-----------|
B |--9-10-9~--|-----------|
G |-----------|-----------|

     E5         Bb5
E |-----------|-----------|
B |--9-10-9~--|-----------|
G |---------9~|-----------|


     E5            Bb5
        Es encantador...
E |-----------|-----------|
B |--9-10-9~--|-----------|
G |-----------|-----------|

     E5            Bb5
        Tan encantador!
E |--------|-----------|
B |--5/9~--|-----------|
G |--------|-----------|


E5                          Bb5               fill 1
Jurás que te criaste en un balde de gusanos
E5                            Bb5             fill 2
tonteras de ayer que no te dejan ser feliz
E5                            Bb5               fill 3
No te están quedando más de tus balas de plata
E5                 Bb5
(no debí decirlo, tu esclavo ahora soy...)


    E5            Bb5
    Es encantador...
E |----------|--------------|
B |--9~------|---15~--------|
G |-----9~---|-------15~----|

    E5            Bb5
    Tan encantador!
E |----------|-------------|
B |--9~------|---3~--------|
G |-----9~---|-------3~----|


E5                     Bb5
Debo confesarte que algo me he guardado
E5                    Bb5
me dejé ganar y me puse encantador
E5                      Bb5
A mi alrededor todos piensan que bromeo
E5                       Bb5
y es encantador que pueda sentirme así.


       E

                                    Es encantador...
E |----------------------------------------------|
B |--15/17~---17-14^15-14--15-14-14^12--10-9-----|
G |-------------------------------------------9-7|
D |----------------------------------------------|
A |----------------------------------------------|
E |----------------------------------------------|


   Tan encantador!
E |---------------------------------------------------|
B |---------------------------------------------------|
G |---------------(9)---7^9-7---6^7-6----2-4----------|
D |-9-6-7-4-6-7-9-----------------------------2-0-(2)-|
A |---------------------------------------------------|
E |---------------------------------------------------|


E |-----------------------|
B |-----------------------|
G |-2-(4)------3-5-(5)/7--|
D |----------5------------|
A |-----------------------|
E |-----------------------|


G5
Hay en tu voz un dolor ligero

E |-------------------------|
B |----11-13^13-11-13/15~---|
G |-12----------------------|
D |-------------------------|
A |-------------------------|
E |-------------------------|

G5                C5
encantador, con color de pillo

E |-------------------------|
B |----11-13^13-11-15/17~---|
G |-12----------------------|
D |-------------------------|
A |-------------------------|
E |-------------------------|


E5                Bb5
Es encantador... muy encantador.


Solo 2

E |--16-17-16-17-16-17-16-17-16---------|
B |------------------------------19-17~-|
G |-------------------------------------|
D |-------------------------------------|
A |-------------------------------------|
E |-------------------------------------|

E |----------------------------------------|
B |--15^-15-14-12-------------------14-15-17~-|
G |---------------14-13-14-13-14-16-----------|
D |----------------------------------------|
A |----------------------------------------|
E |----------------------------------------|


E |--16-17-16-17-(19)---17-16-17-16----------|
B |---------------------------------17-------|
G |------------------------------------16----|
D |------------------------------------------|
A |------------------------------------------|
E |------------------------------------------|

E |---------------------------------------|
B |-17/19~-17---15--14--12-10-9--7-7--5~--|
G |---------------------------------------|
D |---------------------------------------|
A |---------------------------------------|
E |---------------------------------------|


E5                    Bb5
Sos titán del sexo, persuasivo y goloso
E5                         Bb5
tu tipa no ve que es una cerda igual que vos
E5                         Bb5
(te manda mensajes de estrellita caliente)
E5                     Bb5
Traga y hace muecas, implora y pide más.


E5             Bb5
Sos encantador...
E5              Bb5
muy encantador!


E |-------------------------------------------|
B |-------------------------------------------|
G |-------(9)---7^9-7---6^7-6----2-4----------|
D |---6-9-----------------------------2-0-(2)-|
A |-7-----------------------------------------|
E |-------------------------------------------|

E |-----------------------|
B |-----------------------|
G |-2-(4)------3-5-(5)^---|
D |----------5------------|
A |-----------------------|
E |-----------------------|


G5                  C5
Lengua rosada y de terciopelo

E |-------------------------|
B |----11-13^13-11-13/15~---|
G |-12----------------------|
D |-------------------------|
A |-------------------------|
E |-------------------------|

G5                C5
Café del Mar y baladas tontas


E |-------------------------|
B |----11-13^13-11-15/17~---|
G |-12----------------------|
D |-------------------------|
A |-------------------------|
E |-------------------------|


E5                  Bb5
Es encantador... Muy encantador...
E5             Bb5
Tan encantador!


Riff 1
Seco, congelado, tonto y afortunado
Riff 2
Macho tupperwear, confortable (tudo Ben)
Riff 1
Cargás con la madre de todas las resacas
Riff 2
Cara de tapir, de gordito bon-o-bon


Sos encantador!
Muy encantador!
Tan encantador!


******************
Riff 1

E |---------------------------------------------|
B |---------------------------------------------|
G |--(9)---(9)--(9)-----------------------------|
D |--(9)---(9)--(9)--------(6)------------------|
A |--(7)---(7)--(7)----5-7------5/7---5-4-2~----|
E |---------------------------------------------|

Riff 2

E |---------------------------------------------|
B |---------------------------------------------|
G |--(9)---(9)--(9)-----------------------------|
D |--(9)---(9)--(9)--------(6)------------------|
A |--(7)---(7)--(7)----5-7------5/7---5-4-2-1~--|
E |---------------------------------------------|


********************

Fill 1:

E |-------------|
B |--9-10-9~----|
G |-------------|

Fill 2:
E |----------------|
B |--9-10--10/12~--|
G |----------------|

Fill 3
E |------------------|
B |--9-10-9-10-9~----|
G |------------------|


Fin.

            
            
Suggest correction
Creating personal tab
Creating personal tab
You can edit any tab online and save it as your Personal.

You can edit, replace or remove any tab part or add personal notes – all changes will be seen only by you.

Personal tabs can be accessed anytime from any device, even offline.
Learn more »
Give kudos to tab author, rate the tab!
1 2 3 4 5
comments
print report bad tab
guest
Wanna post a correction for this tab? Suggest correction