Oops, an error
Loading. Please wait.

Si Tu No Estás bass

version 2
version 2

Whole song

19 views 3 this week
no commentswrite comment
1 2 3 4 5
3 more votes to show rating
add to favorites
×
Save as Personal and add changes to this tab that will be seen only by you. Learn more ›
×
You can save this tab as Personal to edit and correct it or add notes. All changes will be seen only by you. Learn more »
launch autoscroll
font size
0
reset
guitar tuner
edit
Autoscroll
slow
fast
+/-
esc
set tempo
stop
Alucina que no toco Bajo, pero este bajo es de puta madre y merece sacarse BIEN.

Intro:
|----------------------------------------------|
|-------------------------------7-7-9-7--------|
|--3---3-3-3-3-3-5-3--3---3-3-3----------(2x)--|
|----3------------------3----------------------|

|---------------------------------------------------------------|
|---------------------------------------------------------------|
|--------5-----------5-------------------5-----------5----------|
|--5-3-3---3-3-5-3-3---3-3-5-3-3-3-5-3-3---3-3-5-3-3---3-3-5-3--|

1er verso:
|---------------------------------------------------------|
|--5-5-5-5-5----------------------------------------------|
|------------5-5-5-5-5-5-5-7-7-7-7-7-7-7-7-7-7-7-7--(2x)--|
|---------------------------------------------------------|

|-----------------------------------------|
|--5-----5-----5---5-----7-----5----------|
|----5-5---5-5---5---5-5---5-5---5--(4x)--|
|-----------------------------------------|

Pre-coro:
|----------------------------------------------|
|-------------------------------7-7-9-7--------|
|--3---3-3-3-3-3-5-3--3---3-3-3----------(2x)--|
|----3------------------3----------------------|

Coro:
|---------------------------------------------------------|
|---------------------------------------------------------|
|--7-7-7-7-7-5-5-5-5-5-5-5-3-3-3-3-3-5-5-5-5-5-5-5--(3x)--|
|---------------------------------------------------------|

|---------------------------|------------------------|
|---------------------------|------------------------|
|--7-7-7-7-7-5-5-5-5-5-5-5--|--3-2-2-3-2-2-3-2-(4x)--|
|---------------------------|------------------------|

2do verso:
|---------------------------------------------------------|
|--5-5-5-5-5----------------------------------------------|
|------------5-5-5-5-5-5-5-7-7-7-7-7-7-7-7-7-7-7-7--(2x)--|
|---------------------------------------------------------|

|-----------------------------------------|
|--5-----5-----5---5-----7-----5----------|
|----5-5---5-5---5---5-5---5-5---5--(4x)--|
|-----------------------------------------|

Pre-coro:
|----------------------------------------------|
|-------------------------------7-7-9-7--------|
|--3---3-3-3-3-3-5-3--3---3-3-3----------(2x)--|
|----3------------------3----------------------|

Coro:
|---------------------------------------------------------|
|---------------------------------------------------------|
|--7-7-7-7-7-5-5-5-5-5-5-5-3-3-3-3-3-5-5-5-5-5-5-5--(3x)--|
|---------------------------------------------------------|

|---------------------------|------------------------|
|---------------------------|------------------------|
|--7-7-7-7-7-5-5-5-5-5-5-5--|--3-2-2-3-2-2-3-2-(4x)--|
|---------------------------|------------------------|

Intrumental
|---------------------------------------------------------|
|--5-5-5-5-5----------------------------------------------|
|------------5-5-5-5-5-5-5-----7-----7-----7-----7--(4x)--|
|--------------------------0-0---0-0---0-0---0-0----------|

|----------------------------------------------|
|-------------------------------7-7-9-7--------|
|--3---3-3-3-3-3-5-3--3---3-3-3----------(2x)--|
|----3------------------3----------------------|

Coro:
|---------------------------------------------------------|
|---------------------------------------------------------|
|--7-7-7-7-7-5-5-5-5-5-5-5-3-3-3-3-3-5-5-5-5-5-5-5--(3x)--|
|---------------------------------------------------------|

|---------------------------|------------------------|
|---------------------------|------------------------|
|--7-7-7-7-7-5-5-5-5-5-5-5--|--3-2-2-3-2-2-3-2-(4x)--|
|---------------------------|------------------------|

Outro:
|------------------------|-----|
|------------------------|-5~--|
|--3-2-2-3-2-2-3-2-(4x)--|-----|
|------------------------|-----|

Bueno eso es todo, en verdad el Outro al igual que la parte
final del coro la pueden hacer como quieran. Eso es lo unico
que esta un toque improvisado, lo demás si esta igual q la cancion.
Un saludo a la PROM XLI del Humboldt, y al grupito proyecto que tengo.
En verdad me saque esta cancion para el bajista de mi grupo =P.

            
            
Suggest correction
Creating personal tab
Creating personal tab
You can edit any tab online and save it as your Personal.

You can edit, replace or remove any tab part or add personal notes – all changes will be seen only by you.

Personal tabs can be accessed anytime from any device, even offline.
Learn more »
Give kudos to tab author, rate the tab!
1 2 3 4 5
comments
print report bad tab
guest
Wanna post a correction for this tab? Suggest correction