Oops, an error
Loading. Please wait.

Estrechándome tab

version 1
version 1

Whole song

by Rabito
104 views 1 this week
no commentswrite comment
1 2 3 4 5
3 more votes to show rating
add to favorites
×
Save as Personal and add changes to this tab that will be seen only by you. Learn more ›
×
You can save this tab as Personal to edit and correct it or add notes. All changes will be seen only by you. Learn more »
launch autoscroll
font size
0
reset
how to read this tab
guitar tuner
edit
Autoscroll
slow
fast
+/-
esc
set tempo
stop
Ahí les mando a mi parecer la mejor canción de 
Rabito, espero que sea de su agrado y les sea útil.


Intro:
Dm

Gm             A   Gm          A                F

e--5--5--3-----5----5--5--3---------5--3-----3-----------
B-----------6----------------6-5----------6-----6--------
G--------------------------------------------------------
D--------------------------------------------------------
A--------------------------------------------------------
E--------------------------------------------------------


F          C          Gm
  
e--13--10--8--10--13--13/10--10/6--6/3-------------------
B--------------------------------------------------------
G--------------------------------------------------------
D--------------------------------------------------------
A--------------------------------------------------------
E--------------------------------------------------------


                   Dm

e--5--5--3----------5--3-----3---------------------------
B-----------6--3----------6-----3--6--------------------
G--------------------------------------------------------
D--------------------------------------------------------
A--------------------------------------------------------
E--------------------------------------------------------


Dm            Gm         A        Dm  Riff1  Gm  A
Mi corazón ya sabe que salgo contigo
Dm            Gm         A        Dm  Riff2
Por Dios te pido niña que le des cariño
Gm      C             F     Riff3
Piensa hay te pido mi amor
Gm    C            F   A
Junto con el sufro yo


Dm              Gm       A       Dm  Riff1 Gm   A
No quiero que murmuren en los oídos
Dm              Gm        A         Dm  Riff2  
Que todos sepan ya que soy más que amigo
Gm   C            F       Riff3
Besos mil besos de miel  
Gm     C              F      A
Corren por toda tu piel mi piel


  Gm  A             A#       C     
Luego me dirás cuanto me amarás
       F            A
Estrechándome abrazándome


Gm             A   Gm          A                F

e--5--5--3-----5----5--5--3---------5--3-----3-----------
B-----------6----------------6-5----------6-----6--------
G--------------------------------------------------------
D--------------------------------------------------------
A--------------------------------------------------------
E--------------------------------------------------------


F          C          Gm
  
e--13--10--8--10--13--13/10--10/6--6/3-------------------
B--------------------------------------------------------
G--------------------------------------------------------
D--------------------------------------------------------
A--------------------------------------------------------
E--------------------------------------------------------


                   Dm

e--5--5--3----------5--3-----3---------------------------
B-----------6--3----------6-----3--6--------------------
G--------------------------------------------------------
D--------------------------------------------------------
A--------------------------------------------------------
E--------------------------------------------------------


Dm  Gm  A  Dm  Riff1  Gm  A  Dm  Gm  A  Dm  Riff2
Lalay.......
Gm   C            F    Riff3
Besos mil besos de miel
Gm     C              F      A
Corren por toda tu piel mi piel


Dm            Gm         A        Dm   Gm  A
Mi corazón ya sabe que salgo contigo
Dm            Gm         A        Dm   Gm  A
Por Dios te pido niña que le des cariño
Dm            Gm         A        Dm   Gm  A
Mi corazón ya sabe que salgo contigo
Dm            Gm         A        Dm   Gm  A
Por Dios te pido niña que le des cariño


Riff1

e-----------5----
B--3--5--6-------
G----------------
D----------------
A----------------
E----------------


Riff2

e-----------3----
B--3--5--6-----3-
G----------------
D----------------
A----------------
E----------------


Riff3

e-----5--8-----5--8-8/6-
B--8--------8-----------
G-----------------------
D-----------------------
A-----------------------
E-----------------------


Esto es todo amigos, saludos desde el corazón
de América, Bolivia

            
            
Suggest correction
Creating personal tab
Creating personal tab
You can edit any tab online and save it as your Personal.

You can edit, replace or remove any tab part or add personal notes – all changes will be seen only by you.

Personal tabs can be accessed anytime from any device, even offline.
Learn more »
Give kudos to tab author, rate the tab!
1 2 3 4 5
comments
print report bad tab
guest
Wanna post a correction for this tab? Suggest correction