Oops, an error
Loading. Please wait.

Que Será tab

version 1
version 1

Whole song

by Ráfaga
19 views 1 this week
no commentswrite comment
1 2 3 4 5
3 more votes to show rating
add to favorites
×
Save as Personal and add changes to this tab that will be seen only by you. Learn more ›
×
You can save this tab as Personal to edit and correct it or add notes. All changes will be seen only by you. Learn more »
launch autoscroll
font size
0
reset
how to read this tab
guitar tuner
edit
Autoscroll
slow
fast
+/-
esc
set tempo
stop
empieza con una intro algo asi no se como hacer para ponerles como deben
hacer sonar las cuerdas pero si la escuchan lo sacan al toquee es asi :


E|-0-1--0--1-----------------4-3-4---3-3-3--5-6-----|
B|-------------4--1---1-2-1--------------------6----|
G|--------------------------------------------------|
D|--------------------------------------------------|
A|--------------------------------------------------|
E|--------------------------------------------------|


FAm SOL#   RE#
QUE SERA DE MI
LA#m
QUE SERA                             x2
FAm   SOL#       RE#    LA#m
ME QUEDE SIN TI, EN SOLEDAD


COMO HE DE SEGUIR SIN PENSAR
QUE YA TE PERDIY NO VOLVERAS

QUE SERA DE MI ,QUE SERA
BUSCO TU CALOR ,EN LA OSCURIDAD

TE FUSITES DE AQUÍ ,SIN PIEDAD
FAm  SOL#    RE#      DO#
SIN PENSAR EN MI Y SIN LLORAR.

DO#      LA#m                SOL#
QUIEN SERA PRIMAVERA SOBRE TU CAMA
RE#      DO#                   SOL#
QUIEN SERA LA DULZURA SOBRE TU ALMA
LA#m                DO#        SOL#
QUIEN SERA LA TERNURA DE TUS MAÑANAS
RE#            DO#               FAm
QUIEN SERA TU TORMENTO ,SERA TU CAMAAAAA


E|----------11----9---11----8-------|
B|-------9------9-------------------|
G|--8-10----------------------------|
D|----------------------------------|
A|----------------------------------|
E|----------------------------------|


E|----------8-9-8-------11---13----|
B|-------9-------------------------|
G|--9-10---------------------------|
D|---------------------------------|
A|---------------------------------|
E|---------------------------------|

Chauuuhasta aca llego espero que les sirva bye byee

 ... Suerte cualquier creitica me

viene bien , si falta algo agreguen o si no

 despues agrego byee chauu chauuu...

            
            
Suggest correction
Creating personal tab
Creating personal tab
You can edit any tab online and save it as your Personal.

You can edit, replace or remove any tab part or add personal notes – all changes will be seen only by you.

Personal tabs can be accessed anytime from any device, even offline.
Learn more »
Give kudos to tab author, rate the tab!
1 2 3 4 5
comments
print report bad tab
guest
Wanna post a correction for this tab? Suggest correction